Bass Tabs
(THIRD DAY) OR BY ARTIST NAME (JENNIFER KNAPP)
0-9|A|B|C|D|E|F|G|H|I|J|K|L|M|N|O|P|Q|R|S|T|U|V|W|X|Y|Z

Join Us Today!

Don't strum alone...
be a part of the largest online Christian music community. Browse thousands of guitar tabs and chat w/ musicians like yourself.


It's Free!

This tab has been rated a 4.00 out of 5 for accuracy. (1 vote)Sorry, but you must be logged in to rate this tab.
Click here to log-in, or you can click here to register.
(Registration is free)

All songs owned by Integrity and Brentwood-Benson are used by permission. If you make copies of any song on this website, be sure to report your usage to CCLI.
Submitted by: christcore87

FM Static  All The Days
Album: What Are You Waiting For?

/ - slide
~ - hold
 - pump note

Intro/Pre-chorus
G------------------
D------------------
A-1-1--------------
E--1-133-33-1----- x4

Verse
G---------------------
D---------------------
A-1111----------------
E------3333-1--------- x4

Pre-chorus x2
Verse x3

Then:
G---------------------
D---------------------
A-1111----------------
E------3-(stop)-------

Chorus
G------------------      this is just the notes, I think 
D------------------      your smart enough to figure out 
A-1----------------      how many times to play each note
E---1--3--1-------- x2

Pre-chorus x2

Verse 2
G---------------------
D-00--0---------------
A---1-1--------------
E--------33-33-1------ x4

Chorus x2

Bridge
G---------------------
D---------------------
A---------------------
E-6~-1~-3~-1~---------

G---------------------
D---------------------
A---------------------
E-6/13·1513-(stop)-

Chorus x6

End
G---------------------
D-1~------------------
A---------------------
E---------------------


I think that this is an easy song to play and I really like the second
verse. FM Static sure know how to play. The best thing is that the 
whole album rocks. So enjoy!
Im open to any suggestions. Any problems you can email me at 
christcore87@hotmail.com

Comments about this tab

No comments/corrections found. Add your own

Complimentary Christian Ringtones
Dadamobile and CGR have teamed up to bring your favorite Christian artists right to your phone. Sign up today and get 10 complementary ringtones!
Tab Country
Did you know CGR has a sister site w/ country guitar tabs? Well we do! Its called Tab Country. It has a great archive with a lot of country tabs.
Rockin Tabs
Are you looking for a site that has rock guitar tabs? Then Rockintabs.com is the place for you. It is a budding site with many rock guitar tabs. Submit your tab today.
Tab Gallery
Tab Gallery has a compilation of christian, rock, and country tabs all in one place. Come visit us.