Bass Tabs
(THIRD DAY) OR BY ARTIST NAME (JENNIFER KNAPP)
0-9|A|B|C|D|E|F|G|H|I|J|K|L|M|N|O|P|Q|R|S|T|U|V|W|X|Y|Z

Join Us Today!

Don't strum alone...
be a part of the largest online Christian music community. Browse thousands of guitar tabs and chat w/ musicians like yourself.


It's Free!

Ghoti Hook - Invisible Man, The

This tab has not yet been rated for accuracy.Sorry, but you must be logged in to rate this tab.
Click here to log-in, or you can click here to register.
(Registration is free)

All songs owned by Integrity and Brentwood-Benson are used by permission. If you make copies of any song on this website, be sure to report your usage to CCLI.
+------------------------------------------+
\  Artist     :  Ghoti Hook                 \
/  Song       :  The Invisible Man          /
\  Instrument :  Bass                       \
/  Tabbed by  :  Mike!    /
\___________________________________________\

Intro:
G-|-------------------------------------------|
D-|-------------------------------------------| \ x2
A-|-5-5-5-5-5-----------------------5-5-5-5-5-| /
E-|-----------6-6-6-6-6-6-8-8-8-8-8-----------|

G-|-------------------------------------------|
D-|-------------------------------------------|
A-|-5-5-5-5-5-----------------------5-5-5-5-5-|
E-|-----------6-6-6-6-6-6-8-8-8-8-8-----------|
Posing like a statue sitting in my office chair
typing letters for computer eyes to sorta read
drifting like an odor now I'm blending in with the air
I'm becoming more and more of what I've got to be.

G-|-------------------------------|
D-|-------------------------------|
A-|-5-5-5-5-5-5-5-5-5-5-----------|
E-|---------------------6-6-6-6-8-|
I'm invisible I'm floating floating
past the homes of the Ozzie and Harriets.
Past the plans of moving in next door, cause I'm prepared,
I've got it all figured out.

G-|-------------------------------------------|
D-|-------------------------------------7-5---| \ x2
A-|-5-5-5-5-5-------8-6-5-3-3-3-3-5-5-5-----8-| / 
E-|-----------6-6-6---------------------------|

G-|-------------------------------------------|
D-|-------------------------------------------|
A-|-5-5-5-5-5-----------------------5-5-5-5-5-|
E-|-----------6-6-6-6-6-6-8-8-8-8-8-----------|
Made me out of frosted flakes and television shows.
made me out of frozen shrimp in office party bowls.
I metamorphisized cause i have nothing else to do.
I'll walk into the crowd to avoid becoming you.

G-|-------------------------------|
D-|-------------------------------|
A-|-5-5-5-5-5-5-5-5-5-5-----------|
E-|---------------------6-6-6-6-8-|
I'm invisible I'm fading fading
into sacrifice that doesn't stand for anything.
do not disturb this state of unconsciousness.
I'm safe in here, becoming part of
G-|-------------------------------------------|
D-|-------------------------------------7-5---|
A-|-5-5-5-5-5-------8-6-5-3-3-3-3-5-5-5-----8-|
E-|-----------6-6-6---------------------------|
everyone everyone everyone everyone!

G-|-------------------------------------------|
D-|-------------------------------------7-5---| \ x4
A-|-5-5-5-5-5-------8-6-5-3-3-3-3-5-5-5-----8-| / 
E-|-----------6-6-6---------------------------|

G-|-------------------------------|
D-|-------------------------------|
A-|-5-5-5-5-5-5-5-5-5-5-----------|
E-|---------------------6-6-6-6-8-|
I'm invisible I'm fading fading
into sacrifice that doesn't stand for anything.
do not disturb this state of unconsciousness.
I'm safe in here, becoming part of everyone!

Comments about this tab

No comments/corrections found. Add your own

Complimentary Christian Ringtones
Dadamobile and CGR have teamed up to bring your favorite Christian artists right to your phone. Sign up today and get 10 complementary ringtones!
Tab Country
Did you know CGR has a sister site w/ country guitar tabs? Well we do! Its called Tab Country. It has a great archive with a lot of country tabs.
Rockin Tabs
Are you looking for a site that has rock guitar tabs? Then Rockintabs.com is the place for you. It is a budding site with many rock guitar tabs. Submit your tab today.
Tab Gallery
Tab Gallery has a compilation of christian, rock, and country tabs all in one place. Come visit us.