Bass Tabs
(THIRD DAY) OR BY ARTIST NAME (JENNIFER KNAPP)
0-9|A|B|C|D|E|F|G|H|I|J|K|L|M|N|O|P|Q|R|S|T|U|V|W|X|Y|Z

Join Us Today!

Don't strum alone...
be a part of the largest online Christian music community. Browse thousands of guitar tabs and chat w/ musicians like yourself.


It's Free!

This tab has been rated a 4.75 out of 5 for accuracy. (4 votes)Sorry, but you must be logged in to rate this tab.
Click here to log-in, or you can click here to register.
(Registration is free)

All songs owned by Integrity and Brentwood-Benson are used by permission. If you make copies of any song on this website, be sure to report your usage to CCLI.
Submitted by: guitar man4

Switchfoot
Learning To Breathe
"Live in San Diego" DVD version

There is already a tab for this song on here. That tab is for the cd version,
and has a few mistakes in it. This tab is how Tim plays it on the DVD to the 
best of my knowledge. There is only a shot of him like every 30 seconds and 
most of the time you can't see exactly how he is playing it on the fretboard. 
This is as close to the way he plays it you can get (unless you see them 
concert of course...) Check out the DVD,which is awesome if you havn't seen 
it already.  Enjoy :)   Tabbed by Keith Perez

Remember, this is how Tim plays it. He slides all up and down and 
never really stays in first position. A lot of this could be played in first 
position (which is how the other tab is), but I tabbed it out the way he 
plays it, not the easiest way to play the song.
 
Prequel (This is what he plays before the song starts):

G---------------------------------------------------------------------
D-------------------------------------/7---9---10---12----------------
A-0---2---3---5--5-7---0---2---3---5--------------------0---2---3---5-
E---------------------------------------------------------------------

G----------------------------------------------
D-/7---5----9---------------------/7----9---10- Then directly into the intro..
A---------7---7-5--0---2---3---5---------------
E----------------------------------------------

For the intro he he does this thing where he pulls off on the string with his 
right hand fingers and makes it slap on the fretboard. It has the same sound 
as slapping. 

G------------------                           -------------------
D--12/17----12--10- (repeat 3 times, then...) -------------------
A------------------                           -\5555555555555555-
E------------------                           -------------------

Verse 1:
same as on the cd

G-------------------------------------------
D-------------------------------------------  (2X)
A-0---222-3-------------------------10-9----
E--------------3333-77-10-10--3-5-7------10-

Prechorus:

G-------------------------
D-------------------------
A-3-----2---/555555555555-
E-------------------------

Chorus

G----------------------------                -----------------------
D----------------------------  (X3, then...) ----------/10-10-10-10-
A-\3-3---3-3--2--------------                -/55555555-------------
E------3-------3--0-0-022-33-                -----------------------

Verse 2

G----------------------------------------------------
D---5-5---5---5-5---5--------------------------------
A-0-----00--3-----33-3-----------------------10-9----
E------------------------3333-77-10-10--3-5-7-----10-

Directly into Chorus

Bridge (Part 1)

G-----------12---14-16-19--16------------------------------
D-/14--16-----12-------------------------------------------  Repeat X2
A--------------------------------------------------10-9----
E------------------------------3333-77-10-10--3-5-7-----10-

Part 2

G---------                      ---------------------------
D--------- (repeat X3, then...) ---------------------------
A-3-----5-                      -/171717171717171717171717-  
E---------                      ---------------------------
                  Those are 17's, not 1's and 7's ^

Final Chorus/Ending

G----------------------------
D---------------------------- (X3, then...)
A-\3-3---3-3--2--------------
E------3-------3--0-0-022-33-  

G-----------------------                -----------------------
D----------/10-10-10-10-  (X2, then...) -----------------------
A-/55555555-------------                -00000-0-2-33333-5-7---
E-----------------------                ------3--------------3-

Comments about this tab

No comments/corrections found. Add your own

Complimentary Christian Ringtones
Dadamobile and CGR have teamed up to bring your favorite Christian artists right to your phone. Sign up today and get 10 complementary ringtones!
Tab Country
Did you know CGR has a sister site w/ country guitar tabs? Well we do! Its called Tab Country. It has a great archive with a lot of country tabs.
Rockin Tabs
Are you looking for a site that has rock guitar tabs? Then Rockintabs.com is the place for you. It is a budding site with many rock guitar tabs. Submit your tab today.
Tab Gallery
Tab Gallery has a compilation of christian, rock, and country tabs all in one place. Come visit us.