Bass Tabs
(THIRD DAY) OR BY ARTIST NAME (JENNIFER KNAPP)
0-9|A|B|C|D|E|F|G|H|I|J|K|L|M|N|O|P|Q|R|S|T|U|V|W|X|Y|Z

Join Us Today!

Don't strum alone...
be a part of the largest online Christian music community. Browse thousands of guitar tabs and chat w/ musicians like yourself.


It's Free!

Ghoti Hook - Guitar Song, The

This tab has not yet been rated for accuracy.Sorry, but you must be logged in to rate this tab.
Click here to log-in, or you can click here to register.
(Registration is free)

All songs owned by Integrity and Brentwood-Benson are used by permission. If you make copies of any song on this website, be sure to report your usage to CCLI.
+------------------------------------------+
\  Artist     :  Ghoti Hook                 \
/  Song       :  The Guitar Song            /
\  Instrument :  Bass                       \
/  Tabbed by  :  Mike!    /
\___________________________________________\

G-|---------------------------------|
D-|---------------------------------|
A-|-3-3-3-3-3-3-3-3-----------------|
E-|-----------------1-1-1-1-1-1-1-1-|
Hey Kitten, whatcha doin'?
G-|-----------------------------------------|
D-|-----------------------------------------|
A-|-----------------------------------------|
E-|-5-5-5-5-5-5-0-0-0-0-0-0-1-1-1-1-1-1-1-1-|
Wanna play the guitar?
G-|---------------------------------|
D-|---------------------------------|
A-|-3-3-3-3-3-3-3-3-----------------|
E-|-----------------1-1-1-1-1-1-1-1-|
You say, what's that sound
Coming out of the hole in the wood?
You say, what's that sound
Coming out of the hole in the wood?
G-|---------------------------------------------------------------------|
D-|---------------------------------------------------------------------|
A-|-3-3-3-3-3-3-3-3-1-1-1-1-1-1-------------3-3-3-3---------3-3-3-3-3-3-|
E-|-----------------------------1-1-1-1-1-1---------1-1-1-1-------------|
You say, what's that sound
Coming out of the hole in the wood?
It's the guitar

G-|-----------|
D-|-----------|
A-|-----------|
E-|-3-3-3-3-3-|

G-|-------------------------------------------------|
D-|-------------------------------------------------|
A-|-3-3-3-3-3-3-3-2-3-5-3-2-------------------------|
E-|-------------------------1-1-1-1-1-1-1-0-1-3-1-0-|
Hey baby, whatcha doin'?
G-|-------------------------------------------------|
D-|-------------------------------------------------|
A-|-------------------------------------------------|
E-|-5-5-5-5-5-5-0-0-0-0-0-0-1-1-1-1-0-1-3-1-0-3-1-0-|
Playin' with your rattle and plastic car?
G-|-------------------------------------------------|
D-|-------------------------------------------------|
A-|-3-3-3-3-3-3-3-2-3-5-3-2---------------2-3-5-3-2-|
E-|-------------------------1-1-1-1-1-1-1-----------|
You say, what's that sound
Coming out of the hole in the wood?
G-|-------------------------------------------------|
D-|---------------3-2-3-2-0-------------------------|
A-|-3-3-3-3-3-3-3-------------------------2-3-5-3-2-|
E-|-------------------------1-1-1-1-1-1-1-----------|
You say, what's that sound
Coming out of the hole in the wood?
G-|---------------------------------------------------------------|
D-|---------------2-3-5-3-2-------3-2-0---------------------------|
A-|-3-3-3-3-3-3-3-----------1-1-1---------------3-2-0-3-3-3-3-3-3-|
E-|-------------------------------------1-1-1-1-------------------|
You say, what's that sound
Coming out of the hole in the wood?
G-|-----------------------------------|
D-|-----------------------------------|
A-|-------------3-3-3-3-3-3-----------|
E-|-1-1-1-1-1-1-------------3-3-3-3-3-|
It's the guitar

G-|-------------------------------------------------------------------------|
D-|-------------------------------------------------------------------------|
A-|-3-3-3-3-3-3-3-----------------------------------------------------------|
E-|---------------1-1-1-1-1-1-1-5-5-5-5-5-5-0-0-0-0-0-0-1-1-1-1-1-1-1-1-1-1-|

G-|---------------------------------------------------------------------|
D-|---------------------------------------------------------------------|
A-|-3-3-3-3-3-3-3---------------3-3-3-3-3-3-3---------------3-3-3-3-3-3-|
E-|---------------1-1-1-1-1-1-1---------------1-1-1-1-1-1-1-------------|

G-|-------------------------------------------------------------------|
D-|---------------------------------------------9-9-9-9-7-6-7-7-7-6---|
A-|-1-1-1-1-1-1-------------3-3-3-3-3-------------------------------9-|
E-|-------------1-1-1-1-1-1-----------1-1-1-1-1-----------------------|

G-|-------------------------------------------------|
D-|-------------------------------------------------|
A-|-3-3-3-3-3-3-3-2-3-5-3-2-------------------------|
E-|-------------------------1-1-1-1-1-1-1-0-1-3-1-0-|
Hey mama, where ya goin'?
G-|-------------------------------------------------|
D-|-------------------------------------------------|
A-|-------------------------------------------------|
E-|-5-5-5-5-5-5-0-0-0-0-0-0-1-1-1-1-0-1-3-1-0-3-1-0-|
I hope you're not going very far
G-|-------------------------------------------------|
D-|-------------------------------------------------|
A-|-3-3-3-3-3-3-3-5-3-2-3-2---------------2-3-5-3-2-|
E-|-------------------------1-1-1-1-1-1-1-----------|
Because what's that sound
Coming out of the hole in the wood?
G-|-------------------------------------------------|
D-|---------------5-3-5-3-2-------------------------|
A-|-3-3-3-3-3-3-3-------------------------2-3-5-3-2-|
E-|-------------------------1-1-1-1-1-1-1-----------|
Tell me what's that sound
Coming out of the hole in the wood?
G-|-----------------------------------------------|
D-|-----------------------------3-2-0-------------|
A-|-3-3-3-3-3-3-3-3-3-3-3-1-1-1-------------3-2-0-|
E-|-----------------------------------1-1-1-------|
Hey, what's that sound
Coming out of the hole in the wood?
G-|-------------------------------------------------------------------------|
D-|-------------------------------------------------------------------------|
A-|-3-3-3-3---------3-3-3-3---------3-3-2-3---------3-3-2-3-----------------|
E-|---------1-1-1-1---------1-1-0-1---------1-1-0-1---------3-3-3-3-1-1-0-1-|
It's the guitar
It's the guitar
It's the guitar
It's the guitar
It's the guitar
It's the guitar
It's the guitar
It's the guitar
It's the guitar
It's the guitar
It's the guitar

Comments about this tab

BlackAttack1287 - 2005-06-29

It seems to me that your Riff A should go:

D --------------------------------------------
A --------------------------------------------
D -7-9-9-7-9---0-2-2-0-2--7-9-9-7-9--0-2-2-0-2

then:

D --------------------------------------------
A -7-9-9-7-9---0-2-2-0-2--7-9-9-7-9--0-2-2-0-2
D -7-9-9-7-9---0-2-2-0-2--7-9-9-7-9--0-2-2-0-2

It just sounds more like the song, I think. Second opinion anyone?


tedlenoski3 - 2010-12-19

BlackAttack, I think you are right. On the pre-chorus, I think Blair is using a highly volatile rotary wah, cranked all the way up. Anybody back me on that?


Add a comment/correction

Complimentary Christian Ringtones
Dadamobile and CGR have teamed up to bring your favorite Christian artists right to your phone. Sign up today and get 10 complementary ringtones!
Tab Country
Did you know CGR has a sister site w/ country guitar tabs? Well we do! Its called Tab Country. It has a great archive with a lot of country tabs.
Rockin Tabs
Are you looking for a site that has rock guitar tabs? Then Rockintabs.com is the place for you. It is a budding site with many rock guitar tabs. Submit your tab today.
Tab Gallery
Tab Gallery has a compilation of christian, rock, and country tabs all in one place. Come visit us.