Bass Tabs
(THIRD DAY) OR BY ARTIST NAME (JENNIFER KNAPP)
0-9|A|B|C|D|E|F|G|H|I|J|K|L|M|N|O|P|Q|R|S|T|U|V|W|X|Y|Z

Join Us Today!

Don't strum alone...
be a part of the largest online Christian music community. Browse thousands of guitar tabs and chat w/ musicians like yourself.


It's Free!

This tab has not yet been rated for accuracy.Sorry, but you must be logged in to rate this tab.
Click here to log-in, or you can click here to register.
(Registration is free)

All songs owned by Integrity and Brentwood-Benson are used by permission. If you make copies of any song on this website, be sure to report your usage to CCLI.
Submitted by: beyondsociety

Kutless
Your Touch

verse: Listen to song for timing
G ------------
D ------------
A ---1--3--1--
D -5----------

Pre-Chorus: Listen for timing     
/----------------------                
/----------------------                
/----------------------                
/11111333335555555555--     

Chorus: Listen for timing
/-----------------------------                  
/-----------------------------
/--------111111---------------  
/555555--------333333333*11---

Verse
Pre-Chorus
Chorus

Then:
/---------------                  
/---------------
/----1~---------  
/5~--------3~---

Bridge: BASS SOLO! Listen for timing

/--7-767-10~--7-7-12-10~---7-767-10~--7-12-14~-
/-0----------0-----------0-----------0---------
/----------------------------------------------
/----------------------------------------------

Part when he screams “Touch”...It Is The Heavy Part, You'll Hear It
/---------------------------------------------
/---------------------------------------------
/---------------------------------------------
/0-3/5-005/3-0-3/5-005/3-------------You get how it goes

Chorus

Comments about this tab

No comments/corrections found. Add your own

Complimentary Christian Ringtones
Dadamobile and CGR have teamed up to bring your favorite Christian artists right to your phone. Sign up today and get 10 complementary ringtones!
Tab Country
Did you know CGR has a sister site w/ country guitar tabs? Well we do! Its called Tab Country. It has a great archive with a lot of country tabs.
Rockin Tabs
Are you looking for a site that has rock guitar tabs? Then Rockintabs.com is the place for you. It is a budding site with many rock guitar tabs. Submit your tab today.
Tab Gallery
Tab Gallery has a compilation of christian, rock, and country tabs all in one place. Come visit us.