Bass Tabs
(THIRD DAY) OR BY ARTIST NAME (JENNIFER KNAPP)
0-9|A|B|C|D|E|F|G|H|I|J|K|L|M|N|O|P|Q|R|S|T|U|V|W|X|Y|Z

Join Us Today!

Don't strum alone...
be a part of the largest online Christian music community. Browse thousands of guitar tabs and chat w/ musicians like yourself.


It's Free!

This tab has been rated a 5.00 out of 5 for accuracy. (2 votes)Sorry, but you must be logged in to rate this tab.
Click here to log-in, or you can click here to register.
(Registration is free)

All songs owned by Integrity and Brentwood-Benson are used by permission. If you make copies of any song on this website, be sure to report your usage to CCLI.
Submitted by: KJDondrums

Song:Good People
Album:BloOm
Group:Audio Adrenaline

This is pretty much the same as the other except the other one has some extra
notes.  You should be able to hear the bass easily.  Enjoy!

Intro:

G|-----------------------------------------------------5--5-
D|----------------------------------------------------------
A|---------4-5--5--4-3-2--2--3--3--5--------5--5--3*--------
E|--3--3-4----------------------------3--3------------------

Verse:

G|---------------------------------------
D|--------------------3--3-3-5-----------
A|----------5--5-5--------------3--3-3--5
E|--3--3-3-------------------------------

Pre Chorus:

G|----------------------------------------------------------
D|----------------------------------------------------------
A|----------------------------------------------1-1-3--3--5*
E--3--5/8-5/8-5/8-5*--5/8-5/8-5/8--5/8*--5/12*--------------

Chorus:

G|------------------------------------------------------5--5*
D|-----------------------------------------------------------
A|---------4--5--5-4-3-2--2--3--3--5--------5--5--3*---------
E|--3--3-4----------------------------3--3-------------------

Guitar Solo:

G|---------------------------------------------------------------------
D|---------------------------------------------------------------------
A|----------5--5-5--2--2-2--3--3-3-5---------4--5--5-4-3--2--2--3--3--5
E|--3--3-3----------------------------3--3-4---------------------------

Bass Solo:

G|---------------------------------------------------------------------------
D|--------------------------------------------------9-9-9-9-9-8-9-10-10-10-10
A|--10-10-10-10-10-10-10-10--------------------------------------------------
E|--------------------------10-10-10-10-10-10-10-10--------------------------

G|---------------------------------------------------------------------------
D|--10-10-12--------------------------------------------------9-9-9-9-9-9-9-9
A|-----------10-10-10-10-10-10-10-10-----------------------------------------
E|-----------------------------------10-10-10-10-10-10-10-10-----------------

D|--9-9-9-9-9-9-9

Order:
Intro 1x
Verse 3x
Pre Chorus 1x
Chorus 1x
Verse 3x
Pre Chorus 1x
Chorus 2x
Guitar Solo 2x
Bass Solo 1x
Chorus 2x

Key *= hold a note
*NOTE*
Play the tab with the fifth fret and not an open string.

Comments about this tab

No comments/corrections found. Add your own

Complimentary Christian Ringtones
Dadamobile and CGR have teamed up to bring your favorite Christian artists right to your phone. Sign up today and get 10 complementary ringtones!
Tab Country
Did you know CGR has a sister site w/ country guitar tabs? Well we do! Its called Tab Country. It has a great archive with a lot of country tabs.
Rockin Tabs
Are you looking for a site that has rock guitar tabs? Then Rockintabs.com is the place for you. It is a budding site with many rock guitar tabs. Submit your tab today.
Tab Gallery
Tab Gallery has a compilation of christian, rock, and country tabs all in one place. Come visit us.