Bass Tabs
(THIRD DAY) OR BY ARTIST NAME (JENNIFER KNAPP)
0-9|A|B|C|D|E|F|G|H|I|J|K|L|M|N|O|P|Q|R|S|T|U|V|W|X|Y|Z

Join Us Today!

Don't strum alone...
be a part of the largest online Christian music community. Browse thousands of guitar tabs and chat w/ musicians like yourself.


It's Free!

This tab has not yet been rated for accuracy.Sorry, but you must be logged in to rate this tab.
Click here to log-in, or you can click here to register.
(Registration is free)

All songs owned by Integrity and Brentwood-Benson are used by permission. If you make copies of any song on this website, be sure to report your usage to CCLI.
Submitted by: christcore87

Relient K – My Girlfriend

· play repeatedly
~ hold note
/ slide up neck

Bass doesn’t begin till about 20secs in to the song.

Verse:
G---------------------       G---------------------
D---------------------       D---------------------
A----5-53-3/7-5-------   or  A----555-333/7-5------
E-3-3-----------------       E-333----------------- x2

Chorus:
G---------------------
D---------------------
A-3333-5555------5555-
E-----------3333------ x4

G---------------------
D---------------------
A-3333-5~-------------
E---------------------

Verse x7

then
G---------------------       G---------------------
D---------------------       D---------------------
A----5-5--------------   or  A----555--------------
E-3-3-----------------       E-333-----------------

Chorus:
G---------------------
D---------------------
A-3333-5555------5555-
E-----------3333------ x4

G--------------------------
D-------------------------- there’ a mini drum solo then continue to 
A-3333-5~-(wait)------5555- play chorus as normal.
E----------------3333------ 

Chorus x4

Last time
G---------------------
D---------------------
A-3333-5~-------------
E---------3~----------

Pump the notes in the chorus however many times you feel is necessary. 
It’s a fun song to play, you gotta love the intro. Oh yeah and its cool 
how it follows the answering machine message from the end of “Hello 
McFly”(just had to mention that). Great relient k, enjoy! 
Any problems you can email me at christcore87@hotmail.com

Comments about this tab

No comments/corrections found. Add your own

Complimentary Christian Ringtones
Dadamobile and CGR have teamed up to bring your favorite Christian artists right to your phone. Sign up today and get 10 complementary ringtones!
Tab Country
Did you know CGR has a sister site w/ country guitar tabs? Well we do! Its called Tab Country. It has a great archive with a lot of country tabs.
Rockin Tabs
Are you looking for a site that has rock guitar tabs? Then Rockintabs.com is the place for you. It is a budding site with many rock guitar tabs. Submit your tab today.
Tab Gallery
Tab Gallery has a compilation of christian, rock, and country tabs all in one place. Come visit us.