Bass Tabs
(THIRD DAY) OR BY ARTIST NAME (JENNIFER KNAPP)
0-9|A|B|C|D|E|F|G|H|I|J|K|L|M|N|O|P|Q|R|S|T|U|V|W|X|Y|Z

Join Us Today!

Don't strum alone...
be a part of the largest online Christian music community. Browse thousands of guitar tabs and chat w/ musicians like yourself.


It's Free!

This tab has been rated a 4.00 out of 5 for accuracy. (2 votes)Sorry, but you must be logged in to rate this tab.
Click here to log-in, or you can click here to register.
(Registration is free)

All songs owned by Integrity and Brentwood-Benson are used by permission. If you make copies of any song on this website, be sure to report your usage to CCLI.
Submitted by: christcore87

Audio Adrenaline - Underdog

∑ play repeatedly
~ hold note
/ slide up neck

Intro:
G---------------------
D---------------------
A---------------------
E-33-77-00-8~---------

Verse:
G---------------------
D---------------------
A---------------------
E-8888-7777-0000-0000-

G---------------------
D---------------------
A---------------------
E-8888-7777-0000-3333- x2

G------------------------------
D------------------------------
A------55555555----------------
E-8888----------0-5753-0-35753-

Pre-Chorus:
G---------------------
D---------------------
A---------------------
E-33-77-00-88-88------

G---------------------
D---------------------
A---------------------
E-33-77-00-88-8~------

Chorus:
G-----------------------------
D-----------------------------
A----------------333333333333-
E-3333-2222-0000-------------- x3

G------------------
D------------------
A----------------3-
E-3333-2222-0000---

Post-Chorus:
G---------------------
D-5-4-2---------------
A-------5-3232--------
E---------------------

Now repeat the above from the Verse,
but after Chorus go straight to the Bridge

Bridge:
G-----------------------
D-----------------------
A-3333-5555-------------
E-----------33-22-00000- x2

Last time on bridge
G------------------------------
D------------------------------
A-3333333-5555555-7777777-/15∑-
E------------------------------

Then play Chorus x4 followed by Post-Chorus x4

End on G
G---------------------
D---------------------
A---------------------
E-3~------------------

Iím pretty certain that this is correct. 
But if you got anything to add that would be cool. Enjoy!
Any problems you can email me at christcore87@hotmail.com

Comments about this tab

No comments/corrections found. Add your own

Complimentary Christian Ringtones
Dadamobile and CGR have teamed up to bring your favorite Christian artists right to your phone. Sign up today and get 10 complementary ringtones!
Tab Country
Did you know CGR has a sister site w/ country guitar tabs? Well we do! Its called Tab Country. It has a great archive with a lot of country tabs.
Rockin Tabs
Are you looking for a site that has rock guitar tabs? Then Rockintabs.com is the place for you. It is a budding site with many rock guitar tabs. Submit your tab today.
Tab Gallery
Tab Gallery has a compilation of christian, rock, and country tabs all in one place. Come visit us.