Bass Tabs
(THIRD DAY) OR BY ARTIST NAME (JENNIFER KNAPP)
0-9|A|B|C|D|E|F|G|H|I|J|K|L|M|N|O|P|Q|R|S|T|U|V|W|X|Y|Z

Join Us Today!

Don't strum alone...
be a part of the largest online Christian music community. Browse thousands of guitar tabs and chat w/ musicians like yourself.


It's Free!

Ghoti Hook - Super Sumo

This tab has not yet been rated for accuracy.Sorry, but you must be logged in to rate this tab.
Click here to log-in, or you can click here to register.
(Registration is free)

All songs owned by Integrity and Brentwood-Benson are used by permission. If you make copies of any song on this website, be sure to report your usage to CCLI.
+------------------------------------------+
\  Artist     :  Ghoti Hook                 \
/  Song       :  Super Sumo                 /
\  Instrument :  Bass                       \
/  Tabbed by  :  Mike!    /
\___________________________________________\

--- No bass ---
I flip the channels on TV and see some sumos on the screen
I know now what I want to be
I'll put my hair all up in braids, I'll get to eat food all the day
and for this I will get big pay

G-|----|
D-|----|
A-|----|
E-|-5~-|

G-|-----------------------|
D-|-----------------------|
A-|---5-----5-----5-----7-|
E-|-5---3-5---3-5---3-5---|
I'm a full fledged sumo wrestler wanna-be
even if you keep on making fun of me
but you know that's all I'll ever try to be
I'm a full fledged sumo wrestler wanna-be
even if you keep on making fun of me
but you know that's all I'll ever try to be

--- No bass ---
I'll be a "big" celebrity, and "big" is really what I mean
and you know that this is my dream
no one will ever pick on me, what they will feel is jealousy
when I win that champion trophy

G-|----|
D-|----|
A-|----|
E-|-5~-|

G-|-----------------------|
D-|-----------------------|
A-|---5-----5-----5-----7-|
E-|-5---3-5---3-5---3-5---|
I'm a full fledged sumo wrestler wanna-be
even if you keep on making fun of me
but you know that's all I'll ever try to be
I'm a full fledged sumo wrestler wanna-be
even if you keep on making fun of me
but you know that's all I'll ever try to be

G-|---------------------------------------|
D-|---------------------------------------|
A-|---------7-7-7-7-7-7-----------5-5-7-7-|
E-|-5-5-5-5-------------3-3-3-3-3---------|
One day I'll be there fighting for the USA
My whole country routing for me to save the day
My opponents will fight in fear when they take me on
The glorious day when I am crowned Grand Champion

G-|-----------------------------------|
D-|-----------------------------------|
A-|-----------------------------------|
E-|-5-5-5-5-5-5-5-5-5-----------------|
I flip the channels on TV, and see some sumos on the screen
I know now what I want to be
--- No bass ---
I'll be a "big" celebrity, and "big" is really what I mean
and you know that this is my big dream

G-|----|
D-|----|
A-|----|
E-|-5~-|

G-|-----------------------|
D-|-----------------------|
A-|---5-----5-----5-----7-|
E-|-5---3-5---3-5---3-5---|
I'm a full fledged sumo wrestler wanna-be
even if you keep on making fun of me
but you know that's all I'll ever try to be
G-|--------------------------------|
D-|--------------------------------|
A-|------5--------5--------5-----7-|
E-|-5------3-5------3-5------3-5---|
I'm a full fledged sumo wrestler wanna-be
even if you keep on making fun of me
but you know that's all I'll ever try to be

G-|-----------------------|
D-|-----------------------|
A-|-----------5-5-5-5-----|
E-|-5-5-5-5-5---------3-3-|
Sumo...
Sumo...
Sumo...
Sumo...

G-|----|
D-|----|
A-|----|
E-|-5\-|

Comments about this tab

No comments/corrections found. Add your own

Complimentary Christian Ringtones
Dadamobile and CGR have teamed up to bring your favorite Christian artists right to your phone. Sign up today and get 10 complementary ringtones!
Tab Country
Did you know CGR has a sister site w/ country guitar tabs? Well we do! Its called Tab Country. It has a great archive with a lot of country tabs.
Rockin Tabs
Are you looking for a site that has rock guitar tabs? Then Rockintabs.com is the place for you. It is a budding site with many rock guitar tabs. Submit your tab today.
Tab Gallery
Tab Gallery has a compilation of christian, rock, and country tabs all in one place. Come visit us.