Bass Tabs
(THIRD DAY) OR BY ARTIST NAME (JENNIFER KNAPP)
0-9|A|B|C|D|E|F|G|H|I|J|K|L|M|N|O|P|Q|R|S|T|U|V|W|X|Y|Z

Join Us Today!

Don't strum alone...
be a part of the largest online Christian music community. Browse thousands of guitar tabs and chat w/ musicians like yourself.


It's Free!

Ghoti Hook - Spice Drops

This tab has not yet been rated for accuracy.Sorry, but you must be logged in to rate this tab.
Click here to log-in, or you can click here to register.
(Registration is free)

All songs owned by Integrity and Brentwood-Benson are used by permission. If you make copies of any song on this website, be sure to report your usage to CCLI.
+------------------------------------------+
\  Artist     :  Ghoti Hook                 \
/  Song       :  Spice Drops                /
\  Instrument :  Bass                       \
/  Tabbed by  :  Mike!    /
\___________________________________________\

Comes in during second time around guitar solo with drums:

G-|-----------------------------------------------------------------------
D-|-----------------------------------------------------------------------
A-|-3-3-3-1--3-3-3----3-3-3-1--1-1-1-3--3-3-3-1--3-3-3----------1--1-1-1-3
E-|----------------4-----------------------------------4--4-4-4-----------

G-|-----------------------------------------------------------------------
D-|-----------------------------------------------------------------------
A-|-3-3----3-3-1--3-3----3-3-1--3-3----3-3-1--3-3----3-3-1-1-1-1-1-1-1-1-1
E-|-----4-------------4-------------4-------------4-----------------------

G-|--------------------------
D-|--------------------------  \ (x4)
A-|-3--------------6---------  /
E-|----4----------------6----
    Yeah.......... Yeah Yeah


---Speeds up---


G-|---------
D-|--------- \ (x4 without lyrics then )
A-|-3---3-1- / (x4 with lyrics below   )
E-|---4-----

God, God He sent his Son to save us from the evil one
bought by blood begotten Son for faith is free and very fun


G-|---------
D-|--------- \ (at 1/2 speed with lyrics below)
A-|-3---3-1- /
E-|---4-----

God God God God God God God
God God God God God God God


G-|-----------------------
D-|----------------------- 
A-|-6-6-6-8-8-8-8--------- ( God God God )
E-|---------------6-6-7-8-

G-|-----------------------
D-|-----------------------
A-|-6-6-6-8-8-8-8--------- ( AAGHH! )
E-|---------------6-6-7-8-

G-|-----------------------
D-|-----------------------
A-|-6-6-6-8-8-8-8--------- ( Whoo Hoo! )
E-|---------------6-6-7-8-

G-|-----------------------
D-|-----------------------
A-|-6-6-6-8-8-8-8---------
E-|---------------6-6-7-8-


Presolo:
G-|-------------------------------------------------
D-|-------------------------------------------------
A-|-------------------------6-6-6-6-6-6-------------
E-|-8-8-8-8-8-8-4-4-4-4-4-4-------------6-6-6-6-6-6-

G-|-----------------------------------------------------------------
D-|-----------------------------------------------------------------
A-|-3-3-3-3-3-3-3-3-----------------6-6-6-6-6-6-6-6-----------------
E-|-----------------4-4-4-4-4-4-4-4-----------------6-6-6-6-6-6-6-6-


Solo:  (x2)
G-|-----------------------------------------------------------------------
D-|-----------------------------------------------------------------------
A-|-3-3-3-1--3-3-3----3-3-3-1--1-1-1-3--3-3-3-1--3-3-3----------1--1-1-1-3
E-|----------------4-----------------------------------4--4-4-4-----------

Comments about this tab

Littleman_1111 - 2004-04-12

Does anyone know how to play the chords towards the end there?
G8 G10 D10 A 10 C13 G12 C13 G12
and the G7 doesn't sound right.


Add a comment/correction

Complimentary Christian Ringtones
Dadamobile and CGR have teamed up to bring your favorite Christian artists right to your phone. Sign up today and get 10 complementary ringtones!
Tab Country
Did you know CGR has a sister site w/ country guitar tabs? Well we do! Its called Tab Country. It has a great archive with a lot of country tabs.
Rockin Tabs
Are you looking for a site that has rock guitar tabs? Then Rockintabs.com is the place for you. It is a budding site with many rock guitar tabs. Submit your tab today.
Tab Gallery
Tab Gallery has a compilation of christian, rock, and country tabs all in one place. Come visit us.