Bass Tabs
(THIRD DAY) OR BY ARTIST NAME (JENNIFER KNAPP)
0-9|A|B|C|D|E|F|G|H|I|J|K|L|M|N|O|P|Q|R|S|T|U|V|W|X|Y|Z

Join Us Today!

Don't strum alone...
be a part of the largest online Christian music community. Browse thousands of guitar tabs and chat w/ musicians like yourself.


It's Free!

This tab has been rated a 3.67 out of 5 for accuracy. (3 votes)Sorry, but you must be logged in to rate this tab.
Click here to log-in, or you can click here to register.
(Registration is free)

All songs owned by Integrity and Brentwood-Benson are used by permission. If you make copies of any song on this website, be sure to report your usage to CCLI.
Submitted by: Paul86

Bass Tab
Artist: Hillsong United
Album: Look to you
Title: Salvation is here
Track Number: 01

I've had a lot of requests for this so here it is. 
This was tabbed by ear and all credit for the actual song
goes to Hillsong United.

tabbed by Paul Martin (Hope church York). 
Please feel free to email me about this on paulm86@gmail.com

Hillsong united are an awesome band who have helped me tremendously 
so i hope this tab can help others in their personal/church worship.


Intro - repeat 4 times
G]------------------------------------------------------
D]------------------------------------------------------
A]-/14(play x8)\--14-14-12-h14-14-14-12-h14-14-14-12-h14
E]------------------------------------------------------

Verse
Play each note in the verse 8 times in alternate picking.

G]------------------------------------------------------
D]------------------------------------------------------
A]-14-11-9-7--14-11-9-7--7-4-2-0-4-0--------------------
E]------------------------------------------------------
   God above..God above..I don't care


Instrumental after 'its gonna be allright!) Listen for correct
picking
G]------------------------------------------
D]------------------------------------------ x2
A]-2-2-2-2----------------------------------
E]---------0-0-0-0--2-2-2-2--4-4-4-4--------

Chorus
G]------------------------------------------------------------------
D]------------------------------------------------------------------
A]-2-2-2-2-2-2-2-2--------------------------------------------------
E]-----------------0-0-0-0-0-0-0-0---2-2-2-2-2-2-2-2-4-4-4-4-4-4-4-4
  Cus i know...    God saved...      Know his...		


G]------------------------------------------------------------------
D]------------------------------------------------------------------
A]-2-2-2-2-2-2-2-2-----------------4-4-4-4-4-4-4-4-7-7-7-7-7-7-7-7--
E]-----------------0-0-0-0-0-0-0-0----------------------------------
		
END OF CHORUS - GO INTO INTRO AND THEN BACK INTO VERSE, THEN CHORUS

End the 2nd chorus on a the 4th fret on the E string (g#)

No bass in the keyboard instrumental. Come in on 'Salvation is here!!"
Play chorus chords for the rest of the song....so for
Both 'slavation is here' and 'I know my, god....'


I'm almost 100% sure on this tab so enjoy.

Paul

Comments about this tab

No comments/corrections found. Add your own

Complimentary Christian Ringtones
Dadamobile and CGR have teamed up to bring your favorite Christian artists right to your phone. Sign up today and get 10 complementary ringtones!
Tab Country
Did you know CGR has a sister site w/ country guitar tabs? Well we do! Its called Tab Country. It has a great archive with a lot of country tabs.
Rockin Tabs
Are you looking for a site that has rock guitar tabs? Then Rockintabs.com is the place for you. It is a budding site with many rock guitar tabs. Submit your tab today.
Tab Gallery
Tab Gallery has a compilation of christian, rock, and country tabs all in one place. Come visit us.