Bass Tabs
(THIRD DAY) OR BY ARTIST NAME (JENNIFER KNAPP)
0-9|A|B|C|D|E|F|G|H|I|J|K|L|M|N|O|P|Q|R|S|T|U|V|W|X|Y|Z

Join Us Today!

Don't strum alone...
be a part of the largest online Christian music community. Browse thousands of guitar tabs and chat w/ musicians like yourself.


It's Free!

Ghoti Hook - South Capital Street

This tab has not yet been rated for accuracy.Sorry, but you must be logged in to rate this tab.
Click here to log-in, or you can click here to register.
(Registration is free)

All songs owned by Integrity and Brentwood-Benson are used by permission. If you make copies of any song on this website, be sure to report your usage to CCLI.
+------------------------------------------+
\  Artist     :  Ghoti Hook                 \
/  Song       :  South Capitol Street       /
\  Instrument :  Bass                       \
/  Tabbed by  :  Mike!    /
\___________________________________________\

Intro :
G-|-----------------------------|
D-|-----------------------------|
A-|-9-9-9-7-5-5-4-5-------------|
E-|-----------------5-5-4-5-7-7-|

G-|-----------------------------------------------------------------|
D-|-----------------------------------------------------------------|
A-|-9-9-9-7-5-5-4-5-----------------9-9-9-7-5-5-4-5-----------------|
E-|-----------------5-5-4-5-7-7-7-7-----------------5-5-4-5-7-7-7-7-|


G-|-----------------------------|
D-|-----------------------------|
A-|-9-9-9-7-5-5-4-5-------------|
E-|-----------------5-5-4-5-7-7-|
If I understood back then what is so easy to see now
I could have stopped myself from falling far behind
the changes I want will only come if I can turn things down
so I search my heart where I know he lies but then I turn around

G-|-----------------------|
D-|-----------------------|
A-|-------------------5-7-|
E-|-9-9-9-5-5-5-7-7-7-----|
        I should have walked away
        I should have walked away
        I should have walked away

G-|---------------------------------------------------------|
D-|---------------------------------------------------------| \  (x4)
A-|---------------------------------------------------------| /
E-|-2-2-2-2-2-2-2-5-5-5-5-5-5-5-0-0-0-0-0-0-0-2-2-2-2-2-2-2-|


G-|-----------------------------------------------------------|
D-|-----------------------------------------------------------|
A-|-9-9-9-7-5-5-4-5-----------------9-9-9-7-5-5-4-5-----------|
E-|-----------------5-5-4-5-7-7-7-7-----------------5-5-4-5-7-|

G-|-----------------------------|
D-|-----------------------------|
A-|-9-9-9-7-5-5-4-5-------------|
E-|-----------------5-5-4-5-7-7-|
With each passing day I feel the way I did the day before
and the things that haunt me stay the same I wont let them go
I pray and ask for help but then walk down that cursed road
where one waits with what I crave and my lusting hunger grows

G-|-----------------------|
D-|-----------------------|
A-|-------------------5-7-|
E-|-9-9-9-5-5-5-7-7-7-----|
        I should have walked away
        I should have walked away
        I should have walked away

G-|---------------------------------------------------------|
D-|---------------------------------------------------------| \  (x4)
A-|---------------------------------------------------------| /
E-|-2-2-2-2-2-2-2-5-5-5-5-5-5-5-0-0-0-0-0-0-0-2-2-2-2-2-2-2-|

G-|-------------------------------|
D-|-------------------------------| \  (x4)
A-|-9-9-9-7-5-5-4-5---------------| /
E-|-----------------5-5-4-5-7-7-7-|

G-|-----------------------------------------------------------|
D-|-----------------------------------------------------------|
A-|-9-9-9-7-5-5-4-5-----------------9-9-9-7-5-5-4-5-----------|
E-|-----------------5-5-4-5-7-7-7-7-----------------5-5-4-5-7-|

G-|-----------------------------|
D-|-----------------------------|
A-|-9-9-9-7-5-5-4-5-------------|
E-|-----------------5-5-4-5-7-7-|
Sometimes I must give up things that I want so bad
but its these things in the end that I wish Id never had

G-|-----------------------|
D-|-----------------------|
A-|-------------------5-7-|
E-|-9-9-9-5-5-5-7-7-7-----|
        I should have walked away
        I should have walked away
        I should have walked away

G-|---------------------------------------------------------|
D-|---------------------------------------------------------| \  (x4)
A-|---------------------------------------------------------| /
E-|-2-2-2-2-2-2-2-5-5-5-5-5-5-5-0-0-0-0-0-0-0-2-2-2-2-2-2-2-|

Comments about this tab

No comments/corrections found. Add your own

Complimentary Christian Ringtones
Dadamobile and CGR have teamed up to bring your favorite Christian artists right to your phone. Sign up today and get 10 complementary ringtones!
Tab Country
Did you know CGR has a sister site w/ country guitar tabs? Well we do! Its called Tab Country. It has a great archive with a lot of country tabs.
Rockin Tabs
Are you looking for a site that has rock guitar tabs? Then Rockintabs.com is the place for you. It is a budding site with many rock guitar tabs. Submit your tab today.
Tab Gallery
Tab Gallery has a compilation of christian, rock, and country tabs all in one place. Come visit us.