Bass Tabs
(THIRD DAY) OR BY ARTIST NAME (JENNIFER KNAPP)
0-9|A|B|C|D|E|F|G|H|I|J|K|L|M|N|O|P|Q|R|S|T|U|V|W|X|Y|Z

Join Us Today!

Don't strum alone...
be a part of the largest online Christian music community. Browse thousands of guitar tabs and chat w/ musicians like yourself.


It's Free!

This tab has not yet been rated for accuracy.Sorry, but you must be logged in to rate this tab.
Click here to log-in, or you can click here to register.
(Registration is free)

All songs owned by Integrity and Brentwood-Benson are used by permission. If you make copies of any song on this website, be sure to report your usage to CCLI.
Submitted by: bhanley

Title: Holy Moment
Artist: Matt Redman
Album: The Father's Song
Tabber: Ben Hanley (b.hanley1@lancaster.ac.uk)
Equipment: Ibanez GSR200 (Blue)
           Laney HCM15B Practice Amplifier
Comments:This is the first Christian song I've tabbed fully, and
submitted.  I chose this one simple because it's a good song, there were
no freely available tabs, and the bass sounds kinda cool on it. Any
questions/comments, send them to ben@moochers.net

Intro (0:14):                 Preverse (0:16):
G|---------------------------|-------------------------------------|
D|---------------------------|-------------------------------------|
A|17-17-17-17-17-17-15-14-12-|-------------------------------------|
E|---------------------------|-22222222-44444444-55555555-77777777-|

Verse (0:23):
G|--------------------------------|-----------------------------------------|
D|--------------------------------|-----------------------------------------|
A|--------------------------------|-----------------5---5----5-5-5---5-5/9--|
E|-3-4-2-4--3-4--4-5-3-5--4-5-3-5-|-3-4-2-4--3-4--4---3----3-------3--------|

Prechorus (0:38):
G|-------------------------------------------------------------------------|
D|-------------------------------------------------------------------------|
A|---------------------9*-11*-12*--7-0-222222222222/12-14-12-14-12-14-12-14|
E|-2*-4*-5*--2*-4*-5*------------------------------------------------------|
( see footnote [a] )

Chorus (0:53):
G|--------------------------------------------------------------------------|
D|--------------------------------------------------------------------------|
A|--------------------------------------------------------5555555555555555*-|
E|-22222222-44444444-55555555-77777777-22222222-44444444--------------------|

Verse (1:12):
G|------------------------------|---------------------------------------|
D|------------------------------|---------------------------------------|
A|------------------------------|-----------------5---5----5---5----5---|
E|-3-4-2-4--3-4--4-5-3-5--4-5\3-|-3-4-2-4--3-4--4---3----4---3----2---5-|

Prechorus (1:27):
G|------------------------------------------------------------|
D|------------------------------------------------------------|
A|-------------------------7-9*-11*-12*--7-0-2222222222222222-|
E|-2*-4*-5*--2*-4*-5*--5-7------------------------------------|

Chorus (1:42):
G|----------------------------------------------------------------------------|
D|----------------------------------------------------------------------------|
A|--------------------------------------------------------5555555555-44-55-22-|
E|-22222222-44444444-55555555-77777777-22222222-44444444----------------------|

G|----------------------------------------------------------------------------|
D|----------------------------------------------------------------------------|
A|-------------------------------------------------------55555555555555/19-19-|
E|-22222222-44444444-55555555-77777777-22222222-44444444----------------------|
( see footnote [b] )

'Fill' (2:12):
G|----------------------------------------------------------------------------|
D|777----7-7-7-----------------------777---------------------------777--------|
A|---2057-0-2/12-12-12-12-12-12-12-12---2-0/12-12-12-12-12-12-12-12---0-2*-9\0|
E|----------------------------------------------------------------------------|
( fn [c] )

[Instrumentless Singing]

'Holy Moment' (2:42):
G|--------------------------------------------------------------------|
D|--------------------------------------------------------------------|
A|-9-7-9\0--9-7-9\0--9-7-9\0--9-7-9-7-12-979---979--------979-505-505-|
E|------------------------------------------202---757-202-------------|

(3:12):
G|--------------------------------------------------------------------------|
D|-----------------------------------------------------------------77-55----|
A|--------11-9-11----------14-12-14---------11-9-11--5-0-5--55-33-----------|
E|-2-0-2-----------7-5-7-------------2-0-2----------------------------------|

(3:27):
G|--------------------------------------------------------------------------|
D|--------------------------------------------------------------------------|
A|--------------------------------------------------------5555555555555555--|
E|-22222222-44444444-55555555-77777777-22222222-44444444--------------------|

(3:42):
G|--------------------------------------------------------------------------|
D|--------------------------------------------------------------------------|
A|--------------------------------------------------------5555555555555555--|
E|-22222222-44444444-55555555-77777777-22222222-44444444--------------------|


G|--------------------------------------------|
D|--------------------------------------------|
A|-------------------55555555--17-15-14-12-5*-|
E|-22222222-44444444--------------------------|

----------------------------------------------------------

Footnotes

a. These eight notes should be played as quickly as possible. If you can't
get the fingering right, try them on a different string, or just play the
fourteenth fret, eight times.

b. This is accurate. Slide from the fifth fret, all the way to the nineteenth
for a measley two notes. If it's a little too far to make, then just play it
on another string.

c. After letting the second fret ring out for a short time, you should
lightly flick the ninth, and slide it down. If you listen to the song,
you'll hear it.

That's all. Hope this was of some help to you. If you thought it was
rubbish, tell me. If you thought otherwise, I'd like to hear that too :)

Blessings.

Ben.

Comments about this tab

No comments/corrections found. Add your own

Complimentary Christian Ringtones
Dadamobile and CGR have teamed up to bring your favorite Christian artists right to your phone. Sign up today and get 10 complementary ringtones!
Tab Country
Did you know CGR has a sister site w/ country guitar tabs? Well we do! Its called Tab Country. It has a great archive with a lot of country tabs.
Rockin Tabs
Are you looking for a site that has rock guitar tabs? Then Rockintabs.com is the place for you. It is a budding site with many rock guitar tabs. Submit your tab today.
Tab Gallery
Tab Gallery has a compilation of christian, rock, and country tabs all in one place. Come visit us.