Bass Tabs
(THIRD DAY) OR BY ARTIST NAME (JENNIFER KNAPP)
0-9|A|B|C|D|E|F|G|H|I|J|K|L|M|N|O|P|Q|R|S|T|U|V|W|X|Y|Z

Join Us Today!

Don't strum alone...
be a part of the largest online Christian music community. Browse thousands of guitar tabs and chat w/ musicians like yourself.


It's Free!

This tab has been rated a 5.00 out of 5 for accuracy. (2 votes)Sorry, but you must be logged in to rate this tab.
Click here to log-in, or you can click here to register.
(Registration is free)

All songs owned by Integrity and Brentwood-Benson are used by permission. If you make copies of any song on this website, be sure to report your usage to CCLI.
Submitted by: arkana

Young And Aspiring
Underoath


this is an awesome song i tabed it for you guys, i know its 100% correct unless 
i made a written mistake (drop D)also you need to figure out the strumming 
pattern unless i say its the correct amount of times that the note is strummed. 
i got the guitar tab from powertab.net, they didnt have a bass tab so i decided 
to tab this song

Begining 

--------------------------------                    ------
--------------------------------                    ------
-------10-10-----10-10-10/9-----                    ------
-2-2-0------2-2-0----------10-7- repeat and then... -10-7-

verse 

-------
-------
-------
-2-0-7- repeat

pre chorus 

---------------
---------------
---------------
-2-10-7-4-5-10-

chorus 

--------------------
--------------------
--------------------
-2-10-7-12-2-10-7-12

interlude 

--------------------           -------------
--------------------           -------------
--------------------           -------------
-2-2-2--2-2-2--2-2-2 repeat... -9-9-9-9-9-9-

verse

-------------------------------
-------------------------------
-------------------------------
-10-12-10-14-17-10-12-10-14-12-

interlude 2

--------
--------
--------
-2-10-7-

prechorus

------------
------------
------------
-1-10-7-4-5-

end chorus

-------------------------------
-------------------------------
-------------------------------
-2-10-7-12-2-10-7-12-2-10-7-12-

end

------------------------
------------------------
------------------------
-2-2--2-2--2-2-2--2-2-2- 2 times

Comments about this tab

No comments/corrections found. Add your own

Complimentary Christian Ringtones
Dadamobile and CGR have teamed up to bring your favorite Christian artists right to your phone. Sign up today and get 10 complementary ringtones!
Tab Country
Did you know CGR has a sister site w/ country guitar tabs? Well we do! Its called Tab Country. It has a great archive with a lot of country tabs.
Rockin Tabs
Are you looking for a site that has rock guitar tabs? Then Rockintabs.com is the place for you. It is a budding site with many rock guitar tabs. Submit your tab today.
Tab Gallery
Tab Gallery has a compilation of christian, rock, and country tabs all in one place. Come visit us.