Bass Tabs
(THIRD DAY) OR BY ARTIST NAME (JENNIFER KNAPP)
0-9|A|B|C|D|E|F|G|H|I|J|K|L|M|N|O|P|Q|R|S|T|U|V|W|X|Y|Z

Join Us Today!

Don't strum alone...
be a part of the largest online Christian music community. Browse thousands of guitar tabs and chat w/ musicians like yourself.


It's Free!

This tab has been rated a 5.00 out of 5 for accuracy. (2 votes)Sorry, but you must be logged in to rate this tab.
Click here to log-in, or you can click here to register.
(Registration is free)

All songs owned by Integrity and Brentwood-Benson are used by permission. If you make copies of any song on this website, be sure to report your usage to CCLI.
Submitted by: guitar man4

Child
Tait

Intro and Verse:

G------------------              ------------------
D------------------ repeat, then ------------------
A-2-2-22-----------              ------------------
E--------2-2-2-202-              -0-0-00-2-2-2-2/7-

then...(when the guitar enters)

G------------------              ---------
D------------------ repeat, then ---------
A-2-2-22-----------              -------4-
E--------2-2-2-202-              -0-0-00--

Prechorus:(I think this is how it's played)

G--------------------
D--------------------
A-2-2-22-----------4-
E-------2-2-22-0000--

Chorus:

G-------------------------------------------------------------------
D-------------------------------------------------------------------
A-2222222222222222----------------4444444444444444-7777777777777777-
E-----------------2222222222222222----------------------------------

Bridge:
Part 2

G------------------------------------------
D-------------13----------------/13--------
A-2/14--16--16----------13-14------16-14---
E---------------16\-/16------14---------12-

Part 2 and Outro
Just play the chorus

This is the basic notes of the song. The rythym in the chorus sounds like 
its something other than just constant plucking but you should be able
to figure it out. There is also a lot of sliding up and down before the verse
and chorus in a few places so listen to the CD to figure it out. 
Enjoy:)

Tabbed by Keith Perez



Comments about this tab

No comments/corrections found. Add your own

Complimentary Christian Ringtones
Dadamobile and CGR have teamed up to bring your favorite Christian artists right to your phone. Sign up today and get 10 complementary ringtones!
Tab Country
Did you know CGR has a sister site w/ country guitar tabs? Well we do! Its called Tab Country. It has a great archive with a lot of country tabs.
Rockin Tabs
Are you looking for a site that has rock guitar tabs? Then Rockintabs.com is the place for you. It is a budding site with many rock guitar tabs. Submit your tab today.
Tab Gallery
Tab Gallery has a compilation of christian, rock, and country tabs all in one place. Come visit us.