Bass Tabs
(THIRD DAY) OR BY ARTIST NAME (JENNIFER KNAPP)
0-9|A|B|C|D|E|F|G|H|I|J|K|L|M|N|O|P|Q|R|S|T|U|V|W|X|Y|Z

Join Us Today!

Don't strum alone...
be a part of the largest online Christian music community. Browse thousands of guitar tabs and chat w/ musicians like yourself.


It's Free!

Ghoti Hook - Samson

This tab has been rated a 5.00 out of 5 for accuracy. (1 vote)Sorry, but you must be logged in to rate this tab.
Click here to log-in, or you can click here to register.
(Registration is free)

All songs owned by Integrity and Brentwood-Benson are used by permission. If you make copies of any song on this website, be sure to report your usage to CCLI.
+------------------------------------------+
\  Artist     :  Ghoti Hook                 \
/  Song       :  Samson                     /
\  Instrument :  Bass                       \
/  Tabbed by  :  Mike!    /
\___________________________________________\

Intro:
A-|-------7---7-------7---7-------2---2-------7---7-| \  (x4 with bass/drums)
E-|-5-5-5---5---5-5-5---5---0-0-0---0---5-5-5---5---| /  (and x4 with lyrics)
me and Samson go to the store
and ole Samson leaves craters in the floor
me and Samson walk around town
and clumsy Samson knocked several buildings down

G-|-------------------------|
D-|-------------------------| \  (x2 with lyrics)
A-|-5-5-5-7-7-7-5-5-5-7-7-7-| /
E-|-------------------------|
me and Samson we're best of friends
me and Samson until the end

A-|-------7---7-------7---7-------2---2-------7---7-| \  (x4 with bass/drums)
E-|-5-5-5---5---5-5-5---5---0-0-0---0---5-5-5---5---| /  (and x4 with lyrics)
me and Samson go on a double date
but you know it didn't turn out that great
me and my date are romantically impaired
but ole Samson he lost all of his hair

G-|-------------------------|
D-|-------------------------| \  (x2 with lyrics)
A-|-5-5-5-7-7-7-5-5-5-7-7-7-| /
E-|-------------------------|
me and Samson we're best of friends
me and Samson until the end

G-|-------------------------------------------------|
D-|-------------------------------------------------| \  (x1 w/o lyrics and)
A-|-------7-7-7-9-9-9-7-7-7-5-5-5-7-7-7-5-5-5-------| /  (x2 with lyrics   )
E-|-5-5-5-------------------------------------5-5-5-|
There is this girl and her name is Delilah
she's a philistine and she's such a big liar
There is this girl and her name is Delilah
she's a philistine and she's such a big liar

---No Bass---
me and Samson are no longer friends
cause ole Samson has met his end
man, I'd really hate to burst your bubble
but it goes to show you
GIRLS ARE NOTHING BUT TROUBLE

G-|-------------------------|
D-|-------------------------| \  (x2 with lyrics)
A-|-5-5-5-7-7-7-5-5-5-7-7-7-| /
E-|-------------------------|
me and Samson we're best of friends
me and Samson until the end

G-|-------------------------------------------------|
D-|-------------------------------------------------| \  (x2 with lyrics   )
A-|-------7-7-7-9-9-9-7-7-7-5-5-5-7-7-7-5-5-5-------| /
E-|-5-5-5-------------------------------------5-5-5-|
There is this girl and her name is Delilah
she's a philistine and she's such a big liar
There is this girl and her name is Delilah
she's a philistine and she's such a big liar

A-|-------7---7---|
E-|-5-5-5---5---5-|

Comments about this tab

No comments/corrections found. Add your own

Complimentary Christian Ringtones
Dadamobile and CGR have teamed up to bring your favorite Christian artists right to your phone. Sign up today and get 10 complementary ringtones!
Tab Country
Did you know CGR has a sister site w/ country guitar tabs? Well we do! Its called Tab Country. It has a great archive with a lot of country tabs.
Rockin Tabs
Are you looking for a site that has rock guitar tabs? Then Rockintabs.com is the place for you. It is a budding site with many rock guitar tabs. Submit your tab today.
Tab Gallery
Tab Gallery has a compilation of christian, rock, and country tabs all in one place. Come visit us.