Bass Tabs
(THIRD DAY) OR BY ARTIST NAME (JENNIFER KNAPP)
0-9|A|B|C|D|E|F|G|H|I|J|K|L|M|N|O|P|Q|R|S|T|U|V|W|X|Y|Z

Join Us Today!

Don't strum alone...
be a part of the largest online Christian music community. Browse thousands of guitar tabs and chat w/ musicians like yourself.


It's Free!

This tab has been rated a 5.00 out of 5 for accuracy. (1 vote)Sorry, but you must be logged in to rate this tab.
Click here to log-in, or you can click here to register.
(Registration is free)

All songs owned by Integrity and Brentwood-Benson are used by permission. If you make copies of any song on this website, be sure to report your usage to CCLI.
Submitted by: Punkbasser4God

Song:             One Girl Revolution
Artist:           Superchic[k]
Album:            Karioke Superstars
Copyright:        2002 Inpop Records
Tabbed By:        PunkBasser4God 


/=slide up
\=slide down
()=play only on the first time

No bass in intro


Verse 1 

G|---53----------
D|------54--345--
A|-33-----66-----
E|---------------
Play 4X 


Pre Chorus 

G|-------------------
D|-------------------
A|333-33-33333-33-1--
E|-------------------
Play 4X


Chorus

G|----------------------------------
D|----------------------------------
A|-33333\11111----------------------
E|-------------11111/22222----------
Play 2X


Bridge 

G|--------------------
D|--------------------
A|-33/55-6-7-8--------
E|--------------------
Play 7X


Pause untill she says "i can lose..."


Verse 2

G|----------353----
D|-----------------
A|--(3)-33---------
E|-----------------
Play 9X


Chorus

G|---------------------------------
D|---------------------------------
A|-33333\11111---------------------
E|-------------11111/22222---------
Play 2X


Brigde

G|------------------
D|------------------
A|--33/55-6-7-8-----
E|------------------
Play 7X


Bass Solo

G|------------------
D|------------------
A|--33/55-6-7-8-----
E|------------------
Play 1X add slap to this instead of pluking.


Interlud

G|--------
D|--------
A|--3/66--
E|--------
Play 13X


Chorus

G|---------------------------------
D|---------------------------------
A|-33333\11111---------------------
E|-------------11111/22222---------
Play 4X 


No bass in Outro

 
I am pretty sure i got it right. This is my first tab i have ever done so if 
you have any thing to say about it you can write me at pro_poser1@yahoo.com. 
Thanks Josh.

Comments about this tab

No comments/corrections found. Add your own

Complimentary Christian Ringtones
Dadamobile and CGR have teamed up to bring your favorite Christian artists right to your phone. Sign up today and get 10 complementary ringtones!
Tab Country
Did you know CGR has a sister site w/ country guitar tabs? Well we do! Its called Tab Country. It has a great archive with a lot of country tabs.
Rockin Tabs
Are you looking for a site that has rock guitar tabs? Then Rockintabs.com is the place for you. It is a budding site with many rock guitar tabs. Submit your tab today.
Tab Gallery
Tab Gallery has a compilation of christian, rock, and country tabs all in one place. Come visit us.