Bass Tabs
(THIRD DAY) OR BY ARTIST NAME (JENNIFER KNAPP)
0-9|A|B|C|D|E|F|G|H|I|J|K|L|M|N|O|P|Q|R|S|T|U|V|W|X|Y|Z

Join Us Today!

Don't strum alone...
be a part of the largest online Christian music community. Browse thousands of guitar tabs and chat w/ musicians like yourself.


It's Free!

Ghoti Hook - Running Away

This tab has not yet been rated for accuracy.Sorry, but you must be logged in to rate this tab.
Click here to log-in, or you can click here to register.
(Registration is free)

All songs owned by Integrity and Brentwood-Benson are used by permission. If you make copies of any song on this website, be sure to report your usage to CCLI.
+------------------------------------------+
\  Artist     :  Ghoti Hook                 \
/  Song       :  Running Away               /
\  Instrument :  Bass                       \
/  Tabbed by  :  Mike!    /
\___________________________________________\

Intro:
G-|-----|
D-|-----| \ x2
A-|-0/5-| /
E-|-----|

G-|---------------------------|
D-|---------------------------| \ x4
A-|-5-5-5-4-5-4-2-2-2---------| /
E-|-------------------3-2-3-0-|


G-|-----------------------------------------------------------------|
D-|-----------------------------------------------------------------|
A-|-5-5-5-5-------------------------5-5-5-5-------------------------|
E-|---------7-7-7-7-3-3-3-3-5-5-5-5---------2-2-2-2-0-0-0-0-3-3-3-3-|
You say, "sorry" and walk away,
And you go to face a problem. I can’t stand in your way.
You will lose and fall flat on your face.
And when you do, I’ll still be here, despite your disgrace.

G-|---------------------------------|
D-|---------------------------------|
A-|---------------------------------|
E-|-0-0-0-0-0-0-0-0-3-3-3-3-3-3-3-3-|
My hand is here--just take it.
I’m sick of watching you try to fake it.

G-|-----------------------------------------------------------------|
D-|-----------------------------------------------------------------|
A-|-5-5-5-5-5-5-5-5-------------------------------------------------|
E-|-----------------5-5-5-5-5-5-5-5-3-3-3-3-3-3-3-3-7-7-7-5-5-5-5-5-|
Running away...  Running away...  Running away...
Running away...  Running away...  Running away...

G-|---------------------------|
D-|---------------------------| \ x4
A-|-5-5-5-4-5-4-2-2-2---------| /
E-|-------------------3-2-3-0-|

G-|-----------------------------------------------------------------|
D-|-----------------------------------------------------------------|
A-|-5-5-5-5-------------------------5-5-5-5-------------------------|
E-|---------7-7-7-7-3-3-3-3-5-5-5-5---------2-2-2-2-0-0-0-0-3-3-3-3-|
Ask me now--I know I can help.
Don’t walk away ashamed again and beat up yourself.
Why pretend that I cannot see?
I can see your lack of faith and know that you just don’t trust me.

G-|---------------------------------|
D-|---------------------------------|
A-|---------------------------------|
E-|-0-0-0-0-0-0-0-0-3-3-3-3-3-3-3-3-|
My hand is here--just take it.
I’m sick of watching you try to fake it.

G-|-----------------------------------------------------------------|
D-|-----------------------------------------------------------------|
A-|-5-5-5-5-5-5-5-5-------------------------------------------------|
E-|-----------------5-5-5-5-5-5-5-5-3-3-3-3-3-3-3-3-7-7-7-5-5-5-5-5-|
Running away...  Running away...  Running away...
Running away...  Running away...  Running away...
G-|-----------------|
D-|-----------------|
A-|-----------------|
E-|-3-3-3-3-3-3-3-3-|

G-|-------------------------------------------------------------------------|
D-|-------------------------------------------------------------------------|
A-|-----------------5-5-5-5-------------------------5-5-5-5-----------------|
E-|-0-0-0-0-3-3-3-3---------5-5-5-5-0-0-0-0-3-3-3-3---------5-5-5-5-5-5-5-5-|

G-|---------------------------------|
D-|---------------------------------|
A-|---------------------------------|
E-|-0-0-0-0-0-0-0-0-3-3-3-3-3-3-3-3-|
My hand is here--just take it.
I’m sick of watching you try to fake it.

G-|-----------------------------------------------------------------|
D-|-----------------------------------------------------------------|
A-|-5-5-5-5-5-5-5-5-------------------------------------------------|
E-|-----------------5-5-5-5-5-5-5-5-3-3-3-3-3-3-3-3-7-7-7-5-5-5-5-5-|
Running away...  Running away...  Running away...
Running away...  Running away...  Running away...

G-|---------------------------|
D-|---------------------------| \ x4
A-|-5-5-5-4-5-4-2-2-2---------| /
E-|-------------------3-2-3-0-|

Comments about this tab

PianoMan - 2005-06-26

Now, maybe i'm wrong, but if i'm not mistaken, posting directly from the songbook is illegal and could get the site in trouble. If that is so, then this needs to be taken down.


twinner2 - 2005-08-06

hmm im not sure.. he did site the songbook so im not sure if its considered plagerism.. but you do have to buy the songbook and if you didnt buy the songbook and are just getting the tab from this i think that might be illegal to have it posted fo rhtat reason.. i dunno.. im not using the tab


drummerboy09 - 2005-12-08

I don,t care if he posted from the songbook as long i can see it with out buying the book


cngp90 - 2006-04-09

yeah pianoman, thats what it says in the song submission rules. um, it says,

2. Your song cannot be copied out of a songbook and posted, as that would obviously be a copyright violation. This archive is for tabs that have been figured out by ear.


Add a comment/correction

Complimentary Christian Ringtones
Dadamobile and CGR have teamed up to bring your favorite Christian artists right to your phone. Sign up today and get 10 complementary ringtones!
Tab Country
Did you know CGR has a sister site w/ country guitar tabs? Well we do! Its called Tab Country. It has a great archive with a lot of country tabs.
Rockin Tabs
Are you looking for a site that has rock guitar tabs? Then Rockintabs.com is the place for you. It is a budding site with many rock guitar tabs. Submit your tab today.
Tab Gallery
Tab Gallery has a compilation of christian, rock, and country tabs all in one place. Come visit us.