Bass Tabs
(THIRD DAY) OR BY ARTIST NAME (JENNIFER KNAPP)
0-9|A|B|C|D|E|F|G|H|I|J|K|L|M|N|O|P|Q|R|S|T|U|V|W|X|Y|Z

Join Us Today!

Don't strum alone...
be a part of the largest online Christian music community. Browse thousands of guitar tabs and chat w/ musicians like yourself.


It's Free!

This tab has been rated a 4.33 out of 5 for accuracy. (6 votes)Sorry, but you must be logged in to rate this tab.
Click here to log-in, or you can click here to register.
(Registration is free)

All songs owned by Integrity and Brentwood-Benson are used by permission. If you make copies of any song on this website, be sure to report your usage to CCLI.
Submitted by: Shebz

this what i cud figure out from their awesome new video! And i think we can all agree that 
SHOWBREAD ROX!!   

  EADG

/= slide down
\= slide up
~= let the note ring

INTRO (0:11)
G|--------------------------------------------------|
D|--------------------------------------------------|
A|-44-444-444-2-44---------------------------------|
E|------------------3~-22-222-222-02320------------| repeat x2


VERSE  (0:40) {start at ".. Now find my fault, cuz ur boyfriend can't read.."} 
G|-------------------------------|
D|------64------------64---------|
A|-44-4----64-------4---64-4~---|
E|------------66-----------------|  repeat x4


CHORUS (0:55)
G|---------------------------------------|
D|---------------------------------------|
A|-44-444-444-2-44----------------------|
E|------------------3~-22-222-222-02320-|


VERSE (1:32) {start at "..Your spine is made of metal.."} 


INTERLUDE (1:47)
G|--------------------------|
D|--------------------------|
A|--------------------------|
E|-222222-222222----9/4----|


CHORUS (1:54)


BRIDGE (2:39)
G|---------------------------------------------------------------|
D|---------------------------------------------------------------|
A|------------------22222--22222-----------------44444--44444-|
E|-022222-022222-0-------0-------000000-000000-0------0-------| repeat x2


THEN THIS CHORUS (3:11) [it's the same thing except that it starts from here:]
G|-----------------------|

D|-----------------------|
A|-----------------------|
E|-3~-22-222-222-02320--| **only play this CHORUS here**


PLAY CHORUS ONCE (3:15)


OUTRO CHROUS (3:22)
G|---------------------------------------|
D|---------------------------------------|
A|-44444444444444-----------------------|
E|------------------3-22222222222-02320-| repeat x2


OUTRO (3:40)
G|------------------------------------------------------|
D|------------------------------------------------------|
A|-4444---4444--1/5\2---4444--44444444444---4~~~-----|
E|------------------------------------------------------|

phew!! that it is...and positively correct! Now there is one part in the video where 
Patrick plays some weird thing, but I couldn't figure it out! it's 
crazy, but I juss play this tab when i play. oh, and please rate this tab!

the person whom you can thank: 
juss sum sk8ter (aka:shebz)

ps> GODSPEED, ya'll!

Comments about this tab

No comments/corrections found. Add your own

Complimentary Christian Ringtones
Dadamobile and CGR have teamed up to bring your favorite Christian artists right to your phone. Sign up today and get 10 complementary ringtones!
Tab Country
Did you know CGR has a sister site w/ country guitar tabs? Well we do! Its called Tab Country. It has a great archive with a lot of country tabs.
Rockin Tabs
Are you looking for a site that has rock guitar tabs? Then Rockintabs.com is the place for you. It is a budding site with many rock guitar tabs. Submit your tab today.
Tab Gallery
Tab Gallery has a compilation of christian, rock, and country tabs all in one place. Come visit us.