Bass Tabs
(THIRD DAY) OR BY ARTIST NAME (JENNIFER KNAPP)
0-9|A|B|C|D|E|F|G|H|I|J|K|L|M|N|O|P|Q|R|S|T|U|V|W|X|Y|Z

Join Us Today!

Don't strum alone...
be a part of the largest online Christian music community. Browse thousands of guitar tabs and chat w/ musicians like yourself.


It's Free!

This tab has been rated a 4.00 out of 5 for accuracy. (2 votes)Sorry, but you must be logged in to rate this tab.
Click here to log-in, or you can click here to register.
(Registration is free)

All songs owned by Integrity and Brentwood-Benson are used by permission. If you make copies of any song on this website, be sure to report your usage to CCLI.
Submitted by: mr-devious

Song: A Fruitless End Ever
Band: Project 86
Album: Songs To Burn Your Bridges By

Tabed by: mr-devious

Tuning: Drop D

Key:
> = play note more than once

Intro:
|-----0-2-3--0-2----0----0----------0-2-3--0-2----0------|
|---0-------------3----4---3-2----0-------------3----1-0-|
|-3-----------------------------3------------------------|
|--------------------------------------------------------|

Let guitar play next riff.
(Even though it sounds like there is bass, it's really only
the guitar.)(Although, if you would like to play this as well,
even though you dont need to. Here is the riff:
D|-0>-2>-3>-5>-8>-7>-|)

Second intro riff:
|-----0-2-3--0-2----0----0-----|
|---0-------------3----4---3-2-|
|-3----------------------------|
|------------------------------|

Guitar riff

Third intro riff:
|-----0-2-3--0-2----0------|
|---0-------------3----1-0-|
|-3------------------------|
|--------------------------|

More guitar

Verse (x3):
|-----0-2-3-----0-2-3----0-----|
|---0---------0--------4---3-2-|
|-3---------3------------------|
|------------------------------|

Fill riff:
|-----------------|
|----0>-1>-0>---5-|
|-3>----------3---|
|-----------------|

Verse (x3)
Fill riff

Chorus:
|----------------------------|
|----------------------------|
|----1>----3>-1>----1>----3>-|
|-0>----3>-------0>----3>----|

Guitar riff
Verse (x3)
Fill riff
Verse (x3)
Fill riff
Guitar riff
Chorus (x2)

Bridge (x8):
|----------------------|
|-------------------3>-|
|-5>-3>-5>-3>-5>-3>----|
|----------------------|

Chorus (x3)
Guitar riff

there you have it, it has taken ,me about 2 hours
so you'd better appreciate this tab!
any problems, email me FrenzyFreak05@hotmail.com

Comments about this tab

No comments/corrections found. Add your own

Complimentary Christian Ringtones
Dadamobile and CGR have teamed up to bring your favorite Christian artists right to your phone. Sign up today and get 10 complementary ringtones!
Tab Country
Did you know CGR has a sister site w/ country guitar tabs? Well we do! Its called Tab Country. It has a great archive with a lot of country tabs.
Rockin Tabs
Are you looking for a site that has rock guitar tabs? Then Rockintabs.com is the place for you. It is a budding site with many rock guitar tabs. Submit your tab today.
Tab Gallery
Tab Gallery has a compilation of christian, rock, and country tabs all in one place. Come visit us.