Bass Tabs
(THIRD DAY) OR BY ARTIST NAME (JENNIFER KNAPP)
0-9|A|B|C|D|E|F|G|H|I|J|K|L|M|N|O|P|Q|R|S|T|U|V|W|X|Y|Z

Join Us Today!

Don't strum alone...
be a part of the largest online Christian music community. Browse thousands of guitar tabs and chat w/ musicians like yourself.


It's Free!

This tab has been rated a 5.00 out of 5 for accuracy. (1 vote)Sorry, but you must be logged in to rate this tab.
Click here to log-in, or you can click here to register.
(Registration is free)

All songs owned by Integrity and Brentwood-Benson are used by permission. If you make copies of any song on this website, be sure to report your usage to CCLI.
Submitted by: axemandan

Song: Set if Off
Artist: P.O.D.
Album: Satellite
release: 2001

The tab for this song on this site isn't right. The main thing is that this 
song can't be played on a four string, it's goes too low. The other tab on
this site is good if you got a four string, but it's far from the 
original song.

Again, tabs suck for rhythm, i did my best, but listen with the cd to get it.

~ hold note
\ slide down
/ slide up

Intro 4x
G|----------------------------
D|-------------1111-3-0000-1--
A|3333--3333------------------
E|----------------------------
B|----1-----1-----------------


Verse
        Part1            Part2            Part3
G|----------------|----------------|-----------------
D|----------------|----------------|-----------------
A|----------------|---------444-4--|---------444-----
E|--------444-4---|-1-1-1--------4-|-1-1-1-------4---
B|1-1-1---------4-|----------------|--------------4~\
play part one 8 times
play part two 3 times
play part three once
play part one again 4 times

Pre Chorus 2x
G|-----------------------
D|-----------------------
A|-----------------------
E|-----------------------
B|1----2----4----6----8-8
I like to stay on the B string for a richer sound, but you can jump to the E
string and play 1----3-3 rather than 6----8-8 if it's easier for you.

Chorus
G|------------------|----------------
D|------------------|----------------
A|------------------|----------------
E|------------------|----------3-----
B|1---3-4-1---------|1---3-4-1-------
play first part 6 times, play last part before going back into the verse

Bridge - repeat the intro four times,
then play this for 2nd half ("we made it this far, don't you quit one me")
G|------------------------------
D|------------------------------
A|------------------------------
E|------------------------------
B|1--2--4--6--8-8~---44444\1111-
play four times

Play chrous again with this at the very end of the song:
G|-----
D|-----
A|-----
E|-----
B|-1---

Anyways, that is it, this is 100%, i'm positive... just listen to the
song to get the rhythm, but i think did a better job at that this time.

God bless you all, and let your spirit fly!

Comments about this tab

No comments/corrections found. Add your own

Complimentary Christian Ringtones
Dadamobile and CGR have teamed up to bring your favorite Christian artists right to your phone. Sign up today and get 10 complementary ringtones!
Tab Country
Did you know CGR has a sister site w/ country guitar tabs? Well we do! Its called Tab Country. It has a great archive with a lot of country tabs.
Rockin Tabs
Are you looking for a site that has rock guitar tabs? Then Rockintabs.com is the place for you. It is a budding site with many rock guitar tabs. Submit your tab today.
Tab Gallery
Tab Gallery has a compilation of christian, rock, and country tabs all in one place. Come visit us.