Bass Tabs
(THIRD DAY) OR BY ARTIST NAME (JENNIFER KNAPP)
0-9|A|B|C|D|E|F|G|H|I|J|K|L|M|N|O|P|Q|R|S|T|U|V|W|X|Y|Z

Join Us Today!

Don't strum alone...
be a part of the largest online Christian music community. Browse thousands of guitar tabs and chat w/ musicians like yourself.


It's Free!

This tab has been rated a 4.43 out of 5 for accuracy. (7 votes)Sorry, but you must be logged in to rate this tab.
Click here to log-in, or you can click here to register.
(Registration is free)

All songs owned by Integrity and Brentwood-Benson are used by permission. If you make copies of any song on this website, be sure to report your usage to CCLI.
Submitted by: tranky

Artist: United Live

Verse:

    B       G#m          F#m    E
E|-------4(x8)---------2(x16)-0(x16)---
A|-2(x16)-----76467646-----------------
D|-------------------------------------
G|-------------------------------------

Chorus:
(all eight notes)
1st round
E|------2(x8)-4(x8)-0(x8)-
A|-2(x8)------------------
D|------------------------
G|------------------------

2nd round
E|------2(x8)-4(x8)-5(x8)-
A|-2(x8)------------------
D|------------------------
G|------------------------

Interval
E|-4(x8)-0(x8)-----(repeat once)
A|-----------------
D|-----------------
G|-----------------

Bridge
Slow section(suggestion:play some octaves,slap if possible)
E|-------2-2--4-4--2-2--0-0--4-4--2-2--
A|--2-2--------------------------------
D|-------------------------------------
G|-------------------------------------

Fast section(eight notes again)
E|-----2--4--2--0--4--2-------
A|--2-------------------------
D|----------------------------
G|----------------------------


hope this helped...this is the most basic version of the tabs..
if you want the more complicated ones(or improvised ones) please do post..
feel free to play some bass walks and some slapping ..its a cool song..
Praise be to God..;)

Comments about this tab

No comments/corrections found. Add your own

Complimentary Christian Ringtones
Dadamobile and CGR have teamed up to bring your favorite Christian artists right to your phone. Sign up today and get 10 complementary ringtones!
Tab Country
Did you know CGR has a sister site w/ country guitar tabs? Well we do! Its called Tab Country. It has a great archive with a lot of country tabs.
Rockin Tabs
Are you looking for a site that has rock guitar tabs? Then Rockintabs.com is the place for you. It is a budding site with many rock guitar tabs. Submit your tab today.
Tab Gallery
Tab Gallery has a compilation of christian, rock, and country tabs all in one place. Come visit us.