Bass Tabs
(THIRD DAY) OR BY ARTIST NAME (JENNIFER KNAPP)
0-9|A|B|C|D|E|F|G|H|I|J|K|L|M|N|O|P|Q|R|S|T|U|V|W|X|Y|Z

Join Us Today!

Don't strum alone...
be a part of the largest online Christian music community. Browse thousands of guitar tabs and chat w/ musicians like yourself.


It's Free!

This tab has not yet been rated for accuracy.Sorry, but you must be logged in to rate this tab.
Click here to log-in, or you can click here to register.
(Registration is free)

All songs owned by Integrity and Brentwood-Benson are used by permission. If you make copies of any song on this website, be sure to report your usage to CCLI.
Submitted by: joshbower

Artist: Switchfoot
Album: The Beautiful Letdown
Song: Meant To live
Tunting: Drop D

You will probably need to listin to the song a few times to get the timing
of this song down but once you get it its really easy. Its my first tab so 
please rate. HAVE FUN!

G-------------------
D-------------------
A-------------------
D-999--777--222--555

G----------------------
D----------------------
A----------------------
D-999--777--222-5555777

Verse
G----------------------
D----------------------
A----------------------
D-5--------------------

G------------------------
D------------------------
A------------------------
D-4020-40-454-4020-40-457

G------------------------
D------------------------
A------------------------
D-5----------------------

G------------------------
D------------------------
A------------------------
D-4020-40-454-4020-40-457

Chorus

G-----------------------------------------------
D-----------------------------------------------
A-----------------------------------------------
D-555-777-999-0222-/5x-555-0222-/5x-555-0222-/5x

G----------------------------------
D----------------------------------
A----------------------------------
D-555-777-999-0222-/5x-555-0222-/5x

G------------------------
D------------------------
A------------------------
D-4020-40-454-4020-40-457

Verse

G------------------------
D------------------------
A------------------------
D-5----------------------

G------------------------
D------------------------
A------------------------
D-4020-40-454-4020-40-457

G------------------------
D------------------------
A------------------------
D-5----------------------

G------------------------
D------------------------
A------------------------
D-4020-40-454-4020-40-457

Chorus
G-------------------------------------------
D-------------------------------------------
A-------------------------------------------
D-999-777-222-555-0222-/5x-0222-/5x-0222-/5x

G----------------------------------
D----------------------------------
A----------------------------------
D-555-777-999-0222-/5x-555-0222-/5x

Bridge
G-----------------------------------
D-----------------------------------
A-----------------------------------
D-999-777-222-575757-999-777-222-555

G----------------------------------
D----------------------------------
A----------------------------------
D-9---7----9---7---9----7---5------

G----------------------------------
D----------------------------------
A----------------------------------
D-5555555777777--------------------

G-------------------------------------
D-------------------------------------
A-------------------------------------
D---9\1--1/9-999999-9\1---111111111111
G-------------------------------------
D-------------------------------------
A-------------------------------------
D---9\1--1/9-999999-9\1---111111111111

G-------------------------------------
D-------------------------------------
A-------------------------------------
D---9\1--1/9-999999-9\1---111111111111

G-------------------------------------
D-------------------------------------
A-------------------------------------
D---9\1--1/9-999999-9\1---111111111111

G-------------------------------------
D-------------------------------------
A-------------------------------------
D-999-777-2---------------------------

Questions of comments please email me at joshbower123@hotmail.com and put the 
name of the song in the subject of the email.

Comments about this tab

No comments/corrections found. Add your own

Complimentary Christian Ringtones
Dadamobile and CGR have teamed up to bring your favorite Christian artists right to your phone. Sign up today and get 10 complementary ringtones!
Tab Country
Did you know CGR has a sister site w/ country guitar tabs? Well we do! Its called Tab Country. It has a great archive with a lot of country tabs.
Rockin Tabs
Are you looking for a site that has rock guitar tabs? Then Rockintabs.com is the place for you. It is a budding site with many rock guitar tabs. Submit your tab today.
Tab Gallery
Tab Gallery has a compilation of christian, rock, and country tabs all in one place. Come visit us.