Bass Tabs
(THIRD DAY) OR BY ARTIST NAME (JENNIFER KNAPP)
0-9|A|B|C|D|E|F|G|H|I|J|K|L|M|N|O|P|Q|R|S|T|U|V|W|X|Y|Z

Join Us Today!

Don't strum alone...
be a part of the largest online Christian music community. Browse thousands of guitar tabs and chat w/ musicians like yourself.


It's Free!

This tab has been rated a 5.00 out of 5 for accuracy. (1 vote)Sorry, but you must be logged in to rate this tab.
Click here to log-in, or you can click here to register.
(Registration is free)

All songs owned by Integrity and Brentwood-Benson are used by permission. If you make copies of any song on this website, be sure to report your usage to CCLI.
Submitted by: Andrew Venner

Band: Extol
Album: Undeceived
Copyright: 2000 Solid State
Tabbed by: Andrew

Hi Everyone! This is only my second tab ever written. I had a lot of help with
the intro (thank-you teacher!), and I'm pretty sure it's the most accurate Ember
tab you'll ever find, and it took me a couple of hours to write. This song may 
not sound right when you play it, but play along with the song and you'll find 
it's accurate.

ps. PLEASE rate this tab, and extol do not use drop d tuning EVER!!!!

Artist:Extol					
Album:Undeceived
Song:Ember				     
Tuning: B E A D G  (5-string bass)
     or B E A D    (4-string bass)

h=hammer on		\=slide down				
*=harmonic		/=slide up
b=bend string           pm=palm mute		      		       
X=mute                  S=slap
p=pull off    	        P=pluck string

Riff 1 
Played REALLY Fast
G------------------------------------------------------
D-----------4------4-3---7-----5-----------------------             
A----1----3---4-3------5-----4---6-------4------------- x3
E-1h2--3h4-----------------5-------5-4-3---5-----------
B--------------------------------------------4-3-0-----


G-------------------------------------------------------
D-----------4------4-3---7-----5------------------------
A----1----3---4-3------5-----4---6-------4--------------
E-1h2-3h4-----------------5-------5-4-3---5------------
B--------------------------------------------4-3-0----0-
				   

Riff 2
(Guitar)
G--------------------------
D--------------------------
A----------REST-!-------
E--------------------------
B--------------------------

Pick-up notes
G---------
D---------
A-1---1--- x1
E---------
B---------

Riff 2
G-----------------     G------------	 G--------------           
D-----------------     D------------     D--------------             
A-2--------1----1- x3  A------------ x2  A-3---3--------x1
E-----------------     E----------0-     E--------------	        
B-----0-----------     B-0--2--3----     B-------1---1-- 	


Riff 3
G----------------------------------------------------			   
D----------------------------------------------------
A---------------------------------------------------- x3                     
E----------4-4-4-4-4-0-0-0-0-0-3-3-3-3-3-------------                        
B-0-0-0--0-------------------------------1-1-1-1-1-1-

G--------------------------------------------------------------------
D--------------------------------------------------------------------
A--------------------------------------------------------------------
E----------4-4-4-4-4-0-0-0-0-0-3-3-3-3-------------------------------
B-0-0-0--0-----------------------------1-1-1-1-1-1-1---1-1-1-1-1-1-1-

Riff 4
(Listen to Song For Rhythm)
G---------------------------------------------------
D---------------------------------------------------
A--------------------------------------------------- x2
E---5-2-----3-------2-3------5-2---3-------2---3----
B-3-----3-0---5-1-0--------3-----3---5-1-0---1------


Riff 5
G----------------------------------------------------			   
D----------------------------------------------------
A----------------------------------------------------                      
E----------4-4-4-4-4-0-0-0-0-0-3-3-3-3-3-------------                        
B-0-0-0--0-------------------------------1-1-1-1-1-1-

G--------------------------------------------------------------------
D--------------------------------------------------------------------
A--------------------------------------------------------------------
E----------4-4-4-4-4-0-0-0-0-0-3-3-3-3-------------------------------
B-0-0-0--0-----------------------------1-1-1-1-1-1-1---1-1-1-1-1-1-1-


Riff 6
Played REALLY Fast
G------------------------------------------------------
D-----------4------4-3---7-----5-----------------------             
A----1----3---4-3------5-----4---6-------4------------- x2
E-1h2--3h4-----------------5-------5-4-3---5-----------
B--------------------------------------------4-3-0-----


Riff 7
G----------------------------------
D----------------------------------
A---------------------------------- x4
E-00--00--00--00--33--55--33--55---
B----------------------------------

G---------------------------------------------------
D---------------------------------------------------
A--------------------------------------------------- x2
E-0000--0000--0000--0000--3333--5555--3333--5555----
B---------------------------------------------------


Riff 8
G----------------------------------------------
D-------------4--------------------------------
A-4---4---6------------4-----4----------------- x2
E-----------------9-----------------5-----4----
B----------------------------------------------


(Guitar)			 Pick up notes
G-------------		 G------------
D-------------		 D------------
A-----REST!---		 A-1----1-----
E-------------		 E------------
B-------------		 B------------


G--------------------------------------------------------	          
D--------------------------------------------------------	   	
A-2-------2--1--1--2--------2-1---1---2-------2-22-1---1-             
E--------------------------------------------------------
B-----0----------------0------------------0--------------    	     

G-----------------------  
D-----------------------                  
A-----------------------
E-------------0--------- 
B-0---2---3-------0---2-


(Listen to Song For Rhythm)
G ---------------------------------------------------
D ---------------------------------------------------
A --------------------------------------------------- x2
E ---5-2-----3-------2-3------5-2---3-------2---3----
B -3-----3-0---5-1-0--------3-----3---5-1-0---1------


Outro
G-----------------------------------------------------------------
D-----------------------------------------------------------------
A-----------------------------------------------------------------
E-------------------------------------------------2-2-2-2---------
B-2-2-2-2-2-2-2-2-2-2-2-2-2-2-2-2-4-4-4-4-4-4-4-4---------0-0-0-0-

G-----------------------------------------------------------------
D-----------------------------------------------------------------
A----------------------------------------------------------------- x4
E---------------------------------5-5-5-5-5-5-5-5-4-4-4-4-4-4-4-4-
B-2-2-2-2-2-2-2-2-2-2-2-2-2-2-2-2---------------------------------

Comments about this tab

No comments/corrections found. Add your own

Complimentary Christian Ringtones
Dadamobile and CGR have teamed up to bring your favorite Christian artists right to your phone. Sign up today and get 10 complementary ringtones!
Tab Country
Did you know CGR has a sister site w/ country guitar tabs? Well we do! Its called Tab Country. It has a great archive with a lot of country tabs.
Rockin Tabs
Are you looking for a site that has rock guitar tabs? Then Rockintabs.com is the place for you. It is a budding site with many rock guitar tabs. Submit your tab today.
Tab Gallery
Tab Gallery has a compilation of christian, rock, and country tabs all in one place. Come visit us.