Bass Tabs
(THIRD DAY) OR BY ARTIST NAME (JENNIFER KNAPP)
0-9|A|B|C|D|E|F|G|H|I|J|K|L|M|N|O|P|Q|R|S|T|U|V|W|X|Y|Z

Join Us Today!

Don't strum alone...
be a part of the largest online Christian music community. Browse thousands of guitar tabs and chat w/ musicians like yourself.


It's Free!

Ghoti Hook - Ooklah the Punk

This tab has been rated a 5.00 out of 5 for accuracy. (1 vote)Sorry, but you must be logged in to rate this tab.
Click here to log-in, or you can click here to register.
(Registration is free)

All songs owned by Integrity and Brentwood-Benson are used by permission. If you make copies of any song on this website, be sure to report your usage to CCLI.
+------------------------------------------+
\  Artist     :  Ghoti Hook                 \
/  Song       :  Ooklah The Punk            /
\  Instrument :  Bass                       \
/  Tabbed by  :  Mike!    /
\___________________________________________\

Intro : 
 After first time through guitar intro:
G-|-----|
D-|-----|
A-|-10\-|
E-|-----|


G-|-----------------------------------------------| \
D-|-----------------------------------------------|  \
A-|---3---5-5-5---3---5-5-5---3---5-5-5---5-3-2---|   \
E-|-3---5-------3---5-------3---5-------3-------5-|    \
                                                        \  (x1 w/o lyrics and)
G-|---------------------------------------|             /  (x1 with lyrics)
D-|---------------------------------------|            /
A-|---3---5-5-5---3---5-5-5---3---5-5-5---|           /
E-|-3---5-------3---5-------3---5-------3-|          /
ooklah the punk was going to the show
ooklah the punk fought lou ferrigno
ooklah the punk was struggling for some lyrics
ooklah the punk says anything that fits

E-0- A-|-2---3-----2-3---2--3---2--3--|
ooklah...now youre lying in the gutter
E-0- A-|-2-----3---2-3----2---3---2-3---|
ooklah...hates his father and his mother
E-0- A-|-2--3----2----3--2----3----2--3--|
ooklah...oh your skin is just like butter
A-|-3------5---|
ooklah the punk

G-|-----------------------------------------------| \
D-|-----------------------------------------------|  \
A-|---3---5-5-5---3---5-5-5---3---5-5-5---5-3-2---|   \
E-|-3---5-------3---5-------3---5-------3-------5-|    \
                                                        \  (x1 w/o lyrics and)
G-|---------------------------------------|             /  (x1 with lyrics)
D-|---------------------------------------|            /
A-|---3---5-5-5---3---5-5-5---3---5-5-5---|           /
E-|-3---5-------3---5-------3---5-------3-|          /
ooklah the punk hates everywhere he goes
ooklah the punk says what do you know?
ooklah the punk says how do you do?
ooklah the punk says Im better than you

E-0- A-|-2--3----2---3----2---3---2----3--|
ooklah...smoking drinking now hes thinking
E-0- A-|-2---3---2----3--2------3--2----3--|
ooklah...feeling like he should be kneeling
E-0- A-|-2----3--2-3----2-----3--2-3---|
ooklah...sees damnation wants salvation
A-|-3------5---|
ooklah the punk

G-|-------------------| \
D-|-------------------|  \  (x1 w/o lyrics and)
A-|---2-3-5-5---2-3-5-|  /  (x2 with lyrics)
E-|-3---------3-------| /
I want to be saved like you and I want to be your friend too
I want to be saved like you and I want to be your friend too

G-|-----------------------------------------------| \
D-|-----------------------------------------------|  \
A-|---3---5-5-5---3---5-5-5---3---5-5-5---5-3-2---|   \
E-|-3---5-------3---5-------3---5-------3-------5-|    \
                                                        \  (x1 w/o lyrics and)
G-|---------------------------------------|             /  (x1 with lyrics)
D-|---------------------------------------|            /
A-|---3---5-5-5---3---5-5-5---3---5-5-5---|           /
E-|-3---5-------3---5-------3---5-------3-|          /
ooklah the punk went to a revival
ooklah the punk bought himself a new bible
ooklah the punk he reads it everyday
ooklah the punk says yippee kie yay

E-0- A-|-2---3----2--3---2---3------2--3-|
ooklah...now were at the end of the story
E-0- A-|-2--3-2---3---2----3--2--3-|
ooklah...on a one way trip to glory
E-0- A-|-----2--3-2-----3--2--3--2-3-|
ooklah...now everything is hunky dory
A-|-3------5---|
ooklah the punk

G-|-------------------| \
D-|-------------------|  \  (x4 with lyrics)
A-|---2-3-5-5---2-3-5-|  /
E-|-3---------3-------| /
I want to be saved like you and I want to be your friend too
I want to be saved like you and I want to be your friend too
I want to be saved like you and I want to be your friend too
I want to be saved like you and I want to be your friend too

Comments about this tab

No comments/corrections found. Add your own

Complimentary Christian Ringtones
Dadamobile and CGR have teamed up to bring your favorite Christian artists right to your phone. Sign up today and get 10 complementary ringtones!
Tab Country
Did you know CGR has a sister site w/ country guitar tabs? Well we do! Its called Tab Country. It has a great archive with a lot of country tabs.
Rockin Tabs
Are you looking for a site that has rock guitar tabs? Then Rockintabs.com is the place for you. It is a budding site with many rock guitar tabs. Submit your tab today.
Tab Gallery
Tab Gallery has a compilation of christian, rock, and country tabs all in one place. Come visit us.