Bass Tabs
(THIRD DAY) OR BY ARTIST NAME (JENNIFER KNAPP)
0-9|A|B|C|D|E|F|G|H|I|J|K|L|M|N|O|P|Q|R|S|T|U|V|W|X|Y|Z

Join Us Today!

Don't strum alone...
be a part of the largest online Christian music community. Browse thousands of guitar tabs and chat w/ musicians like yourself.


It's Free!

This tab has been rated a 4.88 out of 5 for accuracy. (8 votes)Sorry, but you must be logged in to rate this tab.
Click here to log-in, or you can click here to register.
(Registration is free)

All songs owned by Integrity and Brentwood-Benson are used by permission. If you make copies of any song on this website, be sure to report your usage to CCLI.
Submitted by: axemandan

Song: Dare You To Move
Artist: Switchfoot
Album: The Beautiful Letdown (2003)

The other tabs for this song on this site are not right. I played this along
with the cd and i'm positive it's correct.

Intro - Don't start playing right away, come in with the drums
G|-----------------------------------------------------------------------
D|-----------------------------------------------------------------------
A|------------------------------------------------------------------2----
E|0-----------------------------0---------------------------2------------

1st Chorus:

G|-----------------------------------------------------------------------
D|2----------------------------------------------------------------------
A|--------------------2---------------------0----------------------------
E|-----------------------------------------------------------------------

G|2----------------------------------------------------------------------
D|-----------------------------------------------------------------------
A|--------------------2---------------------0---------------------2------
E|----0------------------------------------------------------------------

Before 2nd Verse
G|-----------------------------------------------------------------------
D|-----------------------------------------------------------------------
A|-----------------------------------------------------------------------
E|0---0---0---------------------------------------0---0---0--------------

2nd Verse (this is where most people get it wrong)
G|-----------------------------------------------------------------------
D|-----------------------------------------------------------------------
A|-2-4-4-4----2-4-4-4-4----4-4-2-2---------------------------------------
E|-----------------------------------------------------------------------


G|-----------------------------------------------------------------------
D|-----------------------------------------------------------------------
A|-2-4-4-4----2-4-4-4-4----4-4-2-2----0-0-12-0----0-0-12-0----12-12-11-11
E|-----------------------------------------------------------------------

G|-----------------------------------------------------------------------
D|-----------------------------------------------------------------------
A|9-9-7-9----9-9-7-9----9-9-11-11-12-12-12-12-12-12-12-12--14-16-16-16---
E|-----------------------------------------------------------------------

G|-----------------------------------------------------------------------
D|-----------------------------------------------------------------------
A|14-16-16-16-16--16-16-14-14--0-0-12-0--0-0-12-0--12-12-11-11-9-9-7-9---
E|-----------------------------------------------------------------------

G|-----------------------------------------------------------------------
D|-----------------------------------------------------------------------
A|9-9-7-9--9-9-11-11-12-12-12-12-12-12-12-12-14-14-14-14-14-14-14-14-----
E|-----------------------------------------------------------------------

2nd Chorus (2x)
G|-----------------------------------------------------------------------
D|-----------------------------------------------------------------------
A|-------------------2--------------------0------------------2-----------
E|0----------------------------------------------------------------------

Bridge (play frst part twice) (play each note 16 times rather than 8)
G|-------------------------------|---------------------------------------
D|2-2-2-2-2-2-2-2----------------|3-3-3-3-3-3-3-3------------------------
A|----------------0-0-0-0-0-0-0-0|----------------0-0-0-0-0-0-0-0~-------
E|-------------------------------|---------------------------------------

Last Chorus
G|-----------------------------------------------------------------------
D|-----------------------------------------------------------------------
A|--------------------2---------------------0--------------------2-------
E|0----------------------------------------------------------------------

G|-----------------------------------------------------------------------
D|-----------------------------------------------------------------------
A|----------2---------0---------4-----------0-----------0--2--2----------
E|0--------------------------------------------------------------0~------

There, that's it. I'm sure this is correct, i tried giving a sense of rhythm,
but tabs suck for that, so listen along with the cd to get the rhythm.

God Bless you all!

Comments about this tab

No comments/corrections found. Add your own

Complimentary Christian Ringtones
Dadamobile and CGR have teamed up to bring your favorite Christian artists right to your phone. Sign up today and get 10 complementary ringtones!
Tab Country
Did you know CGR has a sister site w/ country guitar tabs? Well we do! Its called Tab Country. It has a great archive with a lot of country tabs.
Rockin Tabs
Are you looking for a site that has rock guitar tabs? Then Rockintabs.com is the place for you. It is a budding site with many rock guitar tabs. Submit your tab today.
Tab Gallery
Tab Gallery has a compilation of christian, rock, and country tabs all in one place. Come visit us.