Bass Tabs
(THIRD DAY) OR BY ARTIST NAME (JENNIFER KNAPP)
0-9|A|B|C|D|E|F|G|H|I|J|K|L|M|N|O|P|Q|R|S|T|U|V|W|X|Y|Z

Join Us Today!

Don't strum alone...
be a part of the largest online Christian music community. Browse thousands of guitar tabs and chat w/ musicians like yourself.


It's Free!

Ghoti Hook - On The Road Again

This tab has not yet been rated for accuracy.Sorry, but you must be logged in to rate this tab.
Click here to log-in, or you can click here to register.
(Registration is free)

All songs owned by Integrity and Brentwood-Benson are used by permission. If you make copies of any song on this website, be sure to report your usage to CCLI.
+------------------------------------------+
\  Artist     :  Ghoti Hook                 \
/  Song       :  On The Road Again          /
\  Instrument :  Bass                       \
/  Tabbed by  :  Mike!    /
\___________________________________________\

Intro:
G-|-----------------|
D-|-----------------|
A-|-----------------|
E-|-4-4-4-4-4-4-4-4-|

G-|-------------------------------------------------------------------------|
D-|-------------------------------------------------1-1-1-1-----------------|
A-|-----------------3-3-3-3-3-3-3-3-1-1-1-1-4-4-4-4-------------------------|
E-|-4-4-4-4-4-4-4-4-----------------------------------------4-4-4-4-4-4-4-4-|

G-|-------------------------------------------------------------------------|
D-|-------------------------------------------------1-1-1-1-----------------|
A-|-----------------3-3-3-3-3-3-3-3-1-1-1-1-4-4-4-4-------------------------|
E-|-4-4-4-4-4-4-4-4-----------------------------------------4-4-4-4-4-4-4-4-|
On the road again
I just can't wait to get on the road again.
The life I love is makin' music with my friends,
And I can't wait to get on the road again

G-|-------------------------------------------------------------------------|
D-|-------------------------------------------------1-1-1-1-----------------|
A-|-----------------3-3-3-3-3-3-3-3-1-1-1-1-4-4-4-4-------------------------|
E-|-4-4-4-4-4-4-4-4-----------------------------------------4-4-4-4-4-4-4-4-|
On the road again. 
Goin' places that I've never been
Seein' things that I may never see again.
I can't wait to get on the road again

G-|------------------------------------------|
D-|-3-3-3-3-3-3-3-3-3-3-3-3------------------|
A-|------------------------------------------|
E-|-------------------------4-4--4-4--4-4--4-|
On the road again.
Like a band of gypsies we go down highway
G-|---------------------------------------------------|
D-|-3-3-3-3-3-3-3-3-3-3-3-3-----------------1-1-1-1-1-|
A-|---------------------------------------------------|
E-|-------------------------4-4-4-4-4-4-4-4-----------|
We're the best of friends. 
Insisting that the world keep turnin' our way.  And our way

G-|-------------------------------------------------------------------------|
D-|-------------------------------------------------1-1-1-1-----------------|
A-|-----------------3-3-3-3-3-3-3-3-1-1-1-1-4-4-4-4-------------------------|
E-|-4-4-4-4-4-4-4-4-----------------------------------------4-4-4-4-4-4-4-4-|
Is on the road again
I just can't wait to get on the road again.
The life I love is makin' music with my friends,
And I can't wait to get on the road again

G-|-------------------------------------------------------------------------|
D-|-------------------------------------------------1-1-1-1-----------------|
A-|-----------------3-3-3-3-3-3-3-3-1-1-1-1-4-4-4-4-------------------------|
E-|-4-4-4-4-4-4-4-4-----------------------------------------4-4-4-4-4-4-4-4-|

G-|-------------------------------------------------------------------------|
D-|-------------------------------------------------1-1-1-1-----------------|
A-|-----------------3-3-3-3-3-3-3-3-1-1-1-1-4-4-4-4-------------------------|
E-|-4-4-4-4-4-4-4-4-----------------------------------------4-4-4-4-4-4-4-4-|

G-|------------------------------------------|
D-|-3-3-3-3-3-3-3-3-3-3-3-3------------------|
A-|------------------------------------------|
E-|-------------------------4-4--4-4--4-4--4-|
On the road again.
Like a band of gypsies we go down highway
G-|---------------------------------------------------|
D-|-3-3-3-3-3-3-3-3-3-3-3-3-----------------1-1-1-1-1-|
A-|---------------------------------------------------|
E-|-------------------------4-4-4-4-4-4-4-4-----------|
We're the best of friends. 
Insisting that the world keep turnin' our way.  And our way

G-|-------------------------------------------------------------------------|
D-|-------------------------------------------------1-1-1-1-----------------|
A-|-----------------3-3-3-3-3-3-3-3-1-1-1-1-4-4-4-4-------------------------|
E-|-4-4-4-4-4-4-4-4-----------------------------------------4-4-4-4-4-4-4-4-|
Is on the road again
I just can't wait to get on the road again.
The life I love is makin' music with my friends,
G-|---------------------------------|
D-|---------1-1-1-1-----------------|
A-|-4-4-4-4-------------------------|
E-|-----------------4-4-4-4-4-4-4-4-|
And I can't wait to get on the road again
And I can't wait to get on the road again
And I can't wait to get on the road again

Comments about this tab

*insertname* - 2008-04-06

good tab aa is a great band keep it up


Add a comment/correction

Complimentary Christian Ringtones
Dadamobile and CGR have teamed up to bring your favorite Christian artists right to your phone. Sign up today and get 10 complementary ringtones!
Tab Country
Did you know CGR has a sister site w/ country guitar tabs? Well we do! Its called Tab Country. It has a great archive with a lot of country tabs.
Rockin Tabs
Are you looking for a site that has rock guitar tabs? Then Rockintabs.com is the place for you. It is a budding site with many rock guitar tabs. Submit your tab today.
Tab Gallery
Tab Gallery has a compilation of christian, rock, and country tabs all in one place. Come visit us.