Bass Tabs
(THIRD DAY) OR BY ARTIST NAME (JENNIFER KNAPP)
0-9|A|B|C|D|E|F|G|H|I|J|K|L|M|N|O|P|Q|R|S|T|U|V|W|X|Y|Z

Join Us Today!

Don't strum alone...
be a part of the largest online Christian music community. Browse thousands of guitar tabs and chat w/ musicians like yourself.


It's Free!

This tab has been rated a 4.80 out of 5 for accuracy. (5 votes)Sorry, but you must be logged in to rate this tab.
Click here to log-in, or you can click here to register.
(Registration is free)

All songs owned by Integrity and Brentwood-Benson are used by permission. If you make copies of any song on this website, be sure to report your usage to CCLI.
Submitted by: roydukkey

Artist: Project 86
Song: Solace
Album: Songs To Burn Your Bridges By
Tuning: Standard

Intro 1
G|---------------------|
D|---------------------| 2x (optional - added)
A|---6---7---4---6-7-4-|
E|-4---4---4-----------|

Intro 2 (0:23)
G|---8----8-9-8-6----8------------8----8-9-8-6----8-----------|
D|-6----6----------6---6-8-9-8--6----6----------6---6-4-6-9---| 4x
A|----------------------------------------------------------9-|
E|------------------------------------------------------------|

Bridge 1 (1:01)
G|-----------|
D|-6666-6666-| 4x
A|-----------|
E|-----------|

Chorus (1:10)
G|-------------------------|
D|--------------------4444-| 4x
A|---6---7---6------4------|
E|-4---4---4----0-4--------|

Bridge 2 (1:29)
G|-----|
D|-----|
A|-----|
E|-4*--|

Intro 2 (1:39) 4x
Bride 1 (2:16)
Chorus  (2:26) 4x

Bridge 3 (2:44)
G|------------|
D|------------|
A|------------|
E|-4*-4*-4*-4*|

Rest while guitar plays Riff below 8 time, then play with Guitar.

Riff 1 (3:12)
G|---8---9-8-----6-|
D|-6---6-----9-8---| 16x
A|-----------------|
E|-----------------|

Interlude 2 (3:50)
G|----------------------------------------------------------|-----|
D|-6-6--6-6-6--6-6-6--6-6-6--6-----------------------------.|-6-6-|
A|-----------------------------7-7--7-7-7--7-7-7--7-7-7--7-.|-----|
E|----------------------------------------------------------|-----|

Chorus (4:11) 8x

Leadout (4:49)
G|-----------------------------------------------|
D|-----------------------------------------------|
A|-----------------------------------------------|
E|-6-6--6-6-6--6-6-6--6-6-6--6-6-6--6-6-6--6-6-6-|

There are parts to this song where the bass is very difficult to hear. Itís 
not that the bass part is difficult, but that you just canít hear it. So I 
sat down one day and came up with this. Everything fits and will work if 
youíre going to play it in a concert.
     ~roydukkey~

Comments about this tab

No comments/corrections found. Add your own

Complimentary Christian Ringtones
Dadamobile and CGR have teamed up to bring your favorite Christian artists right to your phone. Sign up today and get 10 complementary ringtones!
Tab Country
Did you know CGR has a sister site w/ country guitar tabs? Well we do! Its called Tab Country. It has a great archive with a lot of country tabs.
Rockin Tabs
Are you looking for a site that has rock guitar tabs? Then Rockintabs.com is the place for you. It is a budding site with many rock guitar tabs. Submit your tab today.
Tab Gallery
Tab Gallery has a compilation of christian, rock, and country tabs all in one place. Come visit us.