Bass Tabs
(THIRD DAY) OR BY ARTIST NAME (JENNIFER KNAPP)
0-9|A|B|C|D|E|F|G|H|I|J|K|L|M|N|O|P|Q|R|S|T|U|V|W|X|Y|Z

Join Us Today!

Don't strum alone...
be a part of the largest online Christian music community. Browse thousands of guitar tabs and chat w/ musicians like yourself.


It's Free!

Ghoti Hook - Never

This tab has not yet been rated for accuracy.Sorry, but you must be logged in to rate this tab.
Click here to log-in, or you can click here to register.
(Registration is free)

All songs owned by Integrity and Brentwood-Benson are used by permission. If you make copies of any song on this website, be sure to report your usage to CCLI.
+------------------------------------------+
\  Artist     :  Ghoti Hook                 \
/  Song       :  Never                      /
\  Instrument :  Bass                       \
/  Tabbed by  :  Mike!    /
\___________________________________________\

Intro:
G-|---|
D-|---|
A-|-0-|  Repeat over guitar soloing
E-|---|

G-|-------------------------|
D-|-------------------------| \  (x2 without lyrics and )
A-|-0-0-0-------------0-0-0-| /  (x2 with lyrics below  )
E-|-------1-1-1-3-3-3-------|
Got a phone call on this rainy night
it was a call that I'd dread for all my life
my son was driving on a winding road
when he lost control

G-|-------------|
D-|-------------| \  (x2 with lyrics)
A-|-------------| /
E-|-1-1-1-3-3-3-|
My mind is spinning all around in circles
and I think to myself

G-|-------------------|
D-|-------------------| \  (x3 with lyrics)
A-|-------------0-0-0-| /
E-|-1-1-1-3-3-3-------|
Never I know what tomorrow brings with it
never I know what's in store
but all I know is my faith to never lose
E-|-1---------3-------|
     no never, no never

G-|-------------------------|
D-|-------------------------| \  (x2 without lyrics and )
A-|-0-0-0-------------0-0-0-| /  (x2 with lyrics below  )
E-|-------1-1-1-3-3-3-------|
Finally get there, to the twisted wreck
I see my son with a bloody broken neck
I take his hand and place it near my heart
and his last words were

G-|-------------|
D-|-------------| \  (x2 with lyrics)
A-|-------------| /
E-|-1-1-1-3-3-3-|
"Don't worry dad, I'll see you someday"
and he died in my arms

G-|-------------------|
D-|-------------------| \  (x3 with lyrics)
A-|-------------0-0-0-| /
E-|-1-1-1-3-3-3-------|
Never I know what tomorrow brings with it
never I know what's in store
but all I know is my faith to never lose
E-|-1---------3-------|
     no never, no never


Solo:
 Part 1:
  First time through:
   G-|---|
   D-|---|
   A-|-0-| Play once and let it ring
   E-|---|
  Second time through:
   G-|---|
   D-|---|
   A-|-0-| Repeat
   E-|---|

 Part 2:
   G-|-----------------------------------------------------------------|
   D-|---------------------------------0-0-0-0-0-0-0-0-----------------|
   A-|-0-0-0-0-0-0-0-0---------------------------------0-0-0-0-0-0-0-0-|
   E-|-----------------3-3-3-3-3-3-3-3---------------------------------|

   G-|-----------------------------------------------------------------|
   D-|-----------------------------------------------------------------|
   A-|-------------------------------------------------0-0-0-0-0-0-0-0-|
   E-|-1-1-1-1-1-1-1-1-3-3-3-3-3-3-3-3-0-0-0-0-0-0-0-0-----------------|

   G-|-------------------------------------------------|
   D-|-------------0-0-0-------------------------------|
   A-|-0-0-0-------------0-0-0-------------------0-0-0-|
   E-|-------3-3-3-------------1-1-1-3-3-3-0-0-0-------|

   G-|---------------------------------|
   D-|---------0-0---------------------|
   A-|-0-0---------0-0-------------0-0-|
   E-|-----3-3---------1-1-3-3-0-0-----|


G-|-------------------------|
D-|-------------------------| \  (x2 without lyrics and )
A-|-0-0-0-------------0-0-0-| /  (x2 with lyrics below  )
E-|-------1-1-1-3-3-3-------|
His breath has left him, and his eyes have closed
Oh my son, now your body's growing cold
tears are pouring, falling from my face
and I shut my eyes

G-|-------------|
D-|-------------| \  (x2 with lyrics)
A-|-------------| /
E-|-1-1-1-3-3-3-|
So sorrow starts to seep in my sad soul
so I say to myself,

G-|-------------------|
D-|-------------------| \  (x3 with lyrics)
A-|-------------0-0-0-| /
E-|-1-1-1-3-3-3-------|
Never I know what tomorrow brings with it
never I know what's in store
but all I know is my faith to never lose
E-|-1---------3-------|
     no never, no never

Outro:
G-|---|
D-|---|
A-|-0-|  Repeat over guitar soloing
E-|---|

Comments about this tab

pinkfluffyllama - 2004-09-20

instead of D C on "its how i see the world, its how i look at you." it should be Am C D.


Add a comment/correction

Complimentary Christian Ringtones
Dadamobile and CGR have teamed up to bring your favorite Christian artists right to your phone. Sign up today and get 10 complementary ringtones!
Tab Country
Did you know CGR has a sister site w/ country guitar tabs? Well we do! Its called Tab Country. It has a great archive with a lot of country tabs.
Rockin Tabs
Are you looking for a site that has rock guitar tabs? Then Rockintabs.com is the place for you. It is a budding site with many rock guitar tabs. Submit your tab today.
Tab Gallery
Tab Gallery has a compilation of christian, rock, and country tabs all in one place. Come visit us.