Bass Tabs
(THIRD DAY) OR BY ARTIST NAME (JENNIFER KNAPP)
0-9|A|B|C|D|E|F|G|H|I|J|K|L|M|N|O|P|Q|R|S|T|U|V|W|X|Y|Z

Join Us Today!

Don't strum alone...
be a part of the largest online Christian music community. Browse thousands of guitar tabs and chat w/ musicians like yourself.


It's Free!

This tab has been rated a 5.00 out of 5 for accuracy. (6 votes)Sorry, but you must be logged in to rate this tab.
Click here to log-in, or you can click here to register.
(Registration is free)

All songs owned by Integrity and Brentwood-Benson are used by permission. If you make copies of any song on this website, be sure to report your usage to CCLI.
Submitted by: bleeper4

Artist: Sanctus Real
Album: Fight The Tide
Song:  Everything About You
(c)2004 Sparrow Records

Drop Db tuning.  Itíd be a lot easier with just Eb tuning, but thereís that
one low Db that keeps coming in the chorus!  Either way, if you didnít know,
Sanctus Real tunes a half step low, but you can play this in regular E
tuning if you want (it just wonít work when you play along with the track).


INTRO
Gb------------------|----------1st time|----------2nd time
Db-------------7-54-|------------------|------------------
Ab--2-2-0240-0-----5|----5--5-4-5-754--|----50-----4-540--
Db------------------|5-5--5------------|2-2----5-5--------


VERSE 1
Gb-----------------------------------
Db-----------------------------------
Ab--2-2-2-2-0-0-0-0------------------
Db------------------2-2-2-2-5-5-5-5-- Repeat 3x

Gb---------------------------------------
Db---------------------------------------
Ab--2-2-2-2-0-0-0-0-7-7-7-7-10-10-10-10--
Db---------------------------------------

Gb---------------------------------
Db---------------------------------
Ab--0-0-0-0-0-0-0-0----------------
Db------------------5-5-5-5-22222--


CHORUS
Gb-------------------------------------------------------
Db-------------------------------------------------------
Ab----02-----2-2-2-2-0-0-0-0------------0-0-0-0-(5-420)--
Db--5----0-------------------5-55--0---------------------

Gb----------------------------------------------------------
Db----------------------------------------------(11-12-14)--
Ab----02-----2-2-2450-0-0-0-------------0-0-0-0*------------
Db--5----0-------------------5-5-5420-----------------------
(these are licks that you don't have to play)
* = donít mute, let ring


PRE-VERSE 2
Gb-----------------------------------
Db-------------7-540----------------- <-- 0 here is easier to play
Ab--2-2-0240-0----------50-----4-54--
Db------------------2-2----5-5-------


VERSE 2
Gb------------------------------------
Db--------------7-54------------------
Ab--2-2-2-2-0-0-----5----5----5555----
Db-------------------5-5--5-5-----55--

Gb------------------|------------1st time|-----------2nd time
Db------------------|----2-2-----544\----|-------------------
Ab--2-2-2-2-0-0-0-0-|--------------------|-7-7-7-7-----------
Db------------------|2-2-----5-5---------|---------5-5-5-7/--

Gb---------------------------------------------
Db---------------------------------------------
Ab--12-12-12-12-12-12-12-12-10-10-10-10\-------
Db-------------------------------------ó22222--


CHORUS
Gb-------------------------------------------------------
Db-------------------------------------------------------
Ab----02-----2-2-2-2-0-0-0-0------------0-0-0-0-0-0-0-0--
Db--5----0-------------------5-55--0---------------------

Gb----------------------------------------------------------
Db----------------------------------------------(11-12-14)--
Ab----02-----2-2-2450-0-0-0-------------0-0-0-0*------------
Db--5----0-------------------5-5-5420-----------------------


BRIDGE
Gb------------------------------------
Db------------------------------------
Ab--2-2-0222----0---------5-----------
Db-----------24----2-2-02---22-2-4-4--

Gb------------------------------------
Db------------------------------------
Ab--2-2-0225----0---------5-454-5/----
Db-----------24----2-2-02-------------

Gb------------------------------------
Db--9-9-9111212-11-9-7--76----5---05--
Ab---------------------------7--------
Db------------------------------------

Gb--------------------------------------
Db--9-9-9111212-11-9-7--------5---------
Ab----------------------7-----------/\--
Db--------------------------------------

Gb------------------------------------
Db------------------------------------
Ab--222222200000000-------------------
Db-----------------22222222555555555--
Repeat 3x

Gb---------------------
Db---------------------
Ab---------------------
Db--22222222555555555ó


CHORUS
Gb--------------------------------------------
Db--------------------------------------------
Ab--22-22-0-04-5------02-----0-0-0-0-0-0-0-0--
Db---------------5-5-5--0---------------------

Gb----------------------------------------------------------
Db----------------------------------------------(11-12-14)--
Ab----02-----2-2-2450-0-0-0-------------0-0-0-0*------------
Db--5----0-------------------5-5-5420-----------------------


ENDING
Gb-----------------------------------
Db-----------------------------------
Ab-----------------------------------
Db--2-2-2-2/5-5-5-5-0-0-0-0-0-0-0-0-- (syncopate as necessary)

I tried to include all the little changes between each chorus/verse, but you
can ignore them if you just want to keep it simple.  Hope you enjoyed my first
tab, comments/corrections welcome!

JDeng
bleeper4@yahoo.com

Comments about this tab

No comments/corrections found. Add your own

Complimentary Christian Ringtones
Dadamobile and CGR have teamed up to bring your favorite Christian artists right to your phone. Sign up today and get 10 complementary ringtones!
Tab Country
Did you know CGR has a sister site w/ country guitar tabs? Well we do! Its called Tab Country. It has a great archive with a lot of country tabs.
Rockin Tabs
Are you looking for a site that has rock guitar tabs? Then Rockintabs.com is the place for you. It is a budding site with many rock guitar tabs. Submit your tab today.
Tab Gallery
Tab Gallery has a compilation of christian, rock, and country tabs all in one place. Come visit us.