Bass Tabs
(THIRD DAY) OR BY ARTIST NAME (JENNIFER KNAPP)
0-9|A|B|C|D|E|F|G|H|I|J|K|L|M|N|O|P|Q|R|S|T|U|V|W|X|Y|Z

Join Us Today!

Don't strum alone...
be a part of the largest online Christian music community. Browse thousands of guitar tabs and chat w/ musicians like yourself.


It's Free!

This tab has been rated a 5.00 out of 5 for accuracy. (1 vote)Sorry, but you must be logged in to rate this tab.
Click here to log-in, or you can click here to register.
(Registration is free)

All songs owned by Integrity and Brentwood-Benson are used by permission. If you make copies of any song on this website, be sure to report your usage to CCLI.
Submitted by: spacecow29

Skillet

Collide

tabbed by spacecow29 (spacecow29@msn.com)

This tab is for a 5-string bass since that's what John plays. 
This is my first tab, so be sure to tell me what you think. 
I'm positive it's right.

  intro
G|---------------------------------------------------
D|---------------------------------------------------
A|---------------------------------------------------
E|---------------5--5--5-5---------------------------
B|--2--2--2-2----------------5--5--5-5----4--4--4-4--

G|---------------------------------------------------
D|---------------------------------------------------
A|----------------------------------------9--9--9-9--
E|---------------5--5--5-5---------------------------
B|--2--2--2-2----------------5--5--5-5---------------

  verse 2x
G|-------------------------------------------------------
D|-------------------------------------------------------
A|----------------------------------4---2--------9---7\\-
E|--2--2--4---2--5--5--4---2---------------0--0----------
B|----------------------------2--2-----------------------
                                              1st time          2nd time
G|----------------------------------------|---------------|------------------|
D|----------------------------------------|---------------|------------------|
A|----------------------------------4---2-|-------9---11\\|------------------|
E|--2--2--4---2--5--5--4---2--------------|-0--0----------|-2-2-2-2---2-2-2-2|
B|----------------------------2--2--------|---------------|------------------|

  Chorus
G|--------------------------------------------------
D|--------------------------------------------------
A|--------------------------------------------------
E|---------------5--5--5-5--------------------------
B|--2--2--2-2----------------5--5--5-5---4--4--4-4--

G|-------------------------------------------------------
D|-------------------------------------------------------
A|-------------------------------------------------------
E|---------------5--5--5-5---------------2--2--2-2///14--
B|--2--2--2-2----------------5--5--5-5-------------------

G|-------------------------------------------------------
D|-------------------------------------------------------
A|--4--4--4-4--------------------------------------------
E|------------7--5--5--5-5---------------7--7--7-7-------
B|---------------------------5--5--5-5-------------------

G|-------------------------------------------------------
D|-------------------------------------------------------
A|-------------------------------------------------------
E|---------------5--5--5-5---------------2--2--2-2-------
B|--2--2--2-2----------------5--5--5-5-------------------

  1st part of verse 1x

  Verse riff 2x

  Chorus
 
  After 2nd chorus, hit B|--2---------------|

  Bridge 4x
G|------------------------------------------------------------------------
D|------------------------------------------------------------------------
A|--4-----4-----------2-----2-----2---------------------------------------
E|-------------------------------------5-----5-----------2-----2----------
B|----2--2--2--2-2-2----2--2--2--2-2-----2--2--2--2-2-2----2--2--2--2-2-2-

  After 4th time, hit  B|--2-2-2-2-2-2-2-2-2-2-2-2-2-2-2-2--|
                       pm  . . . . . . . . . . . . . . . .

  Chorus

  End on B|--2----------------|

That's it. Hope you enjoy it. This song rocks like a monkey!

Comments about this tab

No comments/corrections found. Add your own

Complimentary Christian Ringtones
Dadamobile and CGR have teamed up to bring your favorite Christian artists right to your phone. Sign up today and get 10 complementary ringtones!
Tab Country
Did you know CGR has a sister site w/ country guitar tabs? Well we do! Its called Tab Country. It has a great archive with a lot of country tabs.
Rockin Tabs
Are you looking for a site that has rock guitar tabs? Then Rockintabs.com is the place for you. It is a budding site with many rock guitar tabs. Submit your tab today.
Tab Gallery
Tab Gallery has a compilation of christian, rock, and country tabs all in one place. Come visit us.