Bass Tabs
(THIRD DAY) OR BY ARTIST NAME (JENNIFER KNAPP)
0-9|A|B|C|D|E|F|G|H|I|J|K|L|M|N|O|P|Q|R|S|T|U|V|W|X|Y|Z

Join Us Today!

Don't strum alone...
be a part of the largest online Christian music community. Browse thousands of guitar tabs and chat w/ musicians like yourself.


It's Free!

This tab has been rated a 5.00 out of 5 for accuracy. (1 vote)Sorry, but you must be logged in to rate this tab.
Click here to log-in, or you can click here to register.
(Registration is free)

All songs owned by Integrity and Brentwood-Benson are used by permission. If you make copies of any song on this website, be sure to report your usage to CCLI.
Submitted by: CamBoy76

Artist: Roper
Album: Brace Yourself for the Mediocre
Song: Vendetta

Intro
G|---------------------------------------|
D|---------------------------------------|
A|-77-6-77-6-77-6-7----------------------|
E|------------------7-55-4-55-4-55-4-5-7-| x2


Verse 1
G|------------------------------|
D|------------------------------|
A|-7-7-7-77-7-7-----------------|
E|--------------7-5-5-5-55-55-7-| x2

G|---------------------------|
D|---------------------------|
A|---------7-77--------------|
E|-0-0-0-00----7-5-5-5-55-55-| x2

G|------------|
D|------------|
A|-7-7--------|
E|----555-0-7-|


Chorus pt. 1
G|---------------------------------|
D|---------------------------------|
A|-77-777-77-777-------------------|
E|---------------5-777-777-777-7-7-|

G|---------------------------------|
D|---------------------------------|
A|-77-777-77-777-------------------|
E|---------------7-555-555-555-5-5-| 

pt. 2
G|---------------------------------------|
D|---------------------------------------|
A|-77-6-77-6-77-6-7----------------------|
E|------------------7-55-4-55-4-55-4-5-7-| x2


Verse 2 (2x palm muted) (2x unmuted)
G|------------------------------|
D|------------------------------|
A|-7-7-7-77-7-7-----------------|
E|--------------7-5-5-5-55-55-7-| x4

G|---------------------------|
D|---------------------------|
A|---------7-77--------------|
E|-0-0-0-00----7-5-5-5-55-55-| x3

G|-----------|
D|-----------|
A|---------7-|
E|-000-5-7---|


Chorus pt.1 x2


Solo
G|------------|
D|------------|
A|-(7)-(ring)-|
E|--0---------|

G|----------------------|
D|----------------------|
A|----7~---5~---4~---3~-|
E|-000--000--000--000---|

For the End just play with the solo peice then slide to E-12.

This song is somewhat self-explanatory, very simple but fun. It's 
imperative that you play with a pick though. I couldn't quite nail
the "Just like Matlock" and "Just like Berry Manilow" part. Any 
suggestions?

-Cam (rubberchicken76@yahoo.com)

Comments about this tab

No comments/corrections found. Add your own

Complimentary Christian Ringtones
Dadamobile and CGR have teamed up to bring your favorite Christian artists right to your phone. Sign up today and get 10 complementary ringtones!
Tab Country
Did you know CGR has a sister site w/ country guitar tabs? Well we do! Its called Tab Country. It has a great archive with a lot of country tabs.
Rockin Tabs
Are you looking for a site that has rock guitar tabs? Then Rockintabs.com is the place for you. It is a budding site with many rock guitar tabs. Submit your tab today.
Tab Gallery
Tab Gallery has a compilation of christian, rock, and country tabs all in one place. Come visit us.