Bass Tabs
(THIRD DAY) OR BY ARTIST NAME (JENNIFER KNAPP)
0-9|A|B|C|D|E|F|G|H|I|J|K|L|M|N|O|P|Q|R|S|T|U|V|W|X|Y|Z

Join Us Today!

Don't strum alone...
be a part of the largest online Christian music community. Browse thousands of guitar tabs and chat w/ musicians like yourself.


It's Free!

This tab has been rated a 5.00 out of 5 for accuracy. (1 vote)Sorry, but you must be logged in to rate this tab.
Click here to log-in, or you can click here to register.
(Registration is free)

All songs owned by Integrity and Brentwood-Benson are used by permission. If you make copies of any song on this website, be sure to report your usage to CCLI.
Submitted by: shambaugh

In Excelsis Deo
by:  Roper
tabbed by:  Shambaugh


You'll have to listen to the song to hear the exact number of times each note
is played...  besides being rockin' this song is easy to play.

Intro:
---------------------------
-1-1-1---------------------
-------3-3-3--1-1-1--------
---------------------3-3-3-


Verse 1:  
-------------------------
-------0-0-0-------------
-3-3-3-------0-0-0-------
-------------------3-3-3-   2x  


Bridge:
------------------------------------------------------------------------
------------------------------------------------------------------------
-------------3-3-3-3-3------------------------0-0-0-0-------------------
-1-1-1-1-3-1-----------3-3-3-3-1-1-1-1-1-3-1----------0-0-0-0-1-1-1-1-3-

-----------------------------------------
-----------------------------------------
-0-3-3-3-5-3-----------------------------
-------------3-3-3-3-1-1-1-1-1-3-3-3-3-3-


Chorus:
---------------------------------------                           -------
-1-1-1-1-1-0-0-0-0-0-------------------       first chours end on -1-1-1- 
---------------------3-3-3-3-3---------                           -------
-------------------------------4-4-4-4- 2x                        -------  


Play intro again


2nd verse:

----------------------------------------------------------
-------0-0-0--------------------0-2-0-0-0-2---------------
-3-3-3-------0-0-0--------3-3-3-------------0-0-0---------
-------------------3-3-3--------------------------3-3-3-3-

2nd time bridge:
------------------------------------------------------------------------
------------------------------------------------------------------------
-------------3-3-3-3-3------------------------0-0-0-0-------------------
-1-1-1-1-1-1-----------3-3-3-3-1-1-1-1-1-1-1----------0-0-0-0-1-1-1-1---

-----------------------------------------
-----------------------------------------
---3-3-3-3-3-----------------------------
-------------3-3-3-3-1-1-1-1-1-3-3-3-3-3-


Play chorus again, but on repeat play:

----3---3----------------------------------                           -------
-1-1-1-1-1-0-1-0-0-0-0-0-------------------       2nd chours end on   ------- 
-------------------------3-3-3-3-3---------                           -------
-----------------------------------4-4-4-4- 2x                        -3-3-3-

Then on the Gloria part play:

-----------------------
-----------------------
-3------0----------1---
-----1----1--3-3-4-----      

Bass cuts out and then comes back in to play chorus 4x 

Ending:

------------------------------------------
-1-1-1-1----------------------------------
---------3-3-3--1-1-1-1---------6-------6-
------------------------4-4-4-4---6-4-6---

Comments about this tab

crsstiewlkr - 2006-12-28

Where are the rest of the lyrics? http://www.markheard.net/heardtribute/lyrics/im_crying_again.html


Add a comment/correction

Complimentary Christian Ringtones
Dadamobile and CGR have teamed up to bring your favorite Christian artists right to your phone. Sign up today and get 10 complementary ringtones!
Tab Country
Did you know CGR has a sister site w/ country guitar tabs? Well we do! Its called Tab Country. It has a great archive with a lot of country tabs.
Rockin Tabs
Are you looking for a site that has rock guitar tabs? Then Rockintabs.com is the place for you. It is a budding site with many rock guitar tabs. Submit your tab today.
Tab Gallery
Tab Gallery has a compilation of christian, rock, and country tabs all in one place. Come visit us.