Bass Tabs
(THIRD DAY) OR BY ARTIST NAME (JENNIFER KNAPP)
0-9|A|B|C|D|E|F|G|H|I|J|K|L|M|N|O|P|Q|R|S|T|U|V|W|X|Y|Z

Join Us Today!

Don't strum alone...
be a part of the largest online Christian music community. Browse thousands of guitar tabs and chat w/ musicians like yourself.


It's Free!

Ghoti Hook - Monsters

This tab has been rated a 3.00 out of 5 for accuracy. (1 vote)Sorry, but you must be logged in to rate this tab.
Click here to log-in, or you can click here to register.
(Registration is free)

All songs owned by Integrity and Brentwood-Benson are used by permission. If you make copies of any song on this website, be sure to report your usage to CCLI.
+------------------------------------------+
\  Artist     :  Ghoti Hook                 \
/  Song       :  Monsters                   /
\  Instrument :  Bass                       \
/  Tabbed by  :  Mike!    /
\___________________________________________\

Intro:
G-|------------------------------|
D-|------------------------------|
A-|-5-5--5-5----------5-5--5-5---|
E-|----------5-5--5-5----------5-|

G-|------------------------------|
D-|------------------------------|
A-|-5-5--5-5----------5-5--5-5---|
E-|----------5-5--5-5----------5-|
I’m walking through the forest tonight,
And I feel a load of shame.
I feel the breeze--it’s blowing tonight,
G-|-------------------------|
D-|-------------------------|
A-|-----------------5-5-5-5-|
E-|-3-3-3-3-5-5-5-5---------|
And it blows my shame away.
It blows it all away.
G-|-------------------------------------|
D-|-------------------------------------|
A-|-5-5--5-5----------5-5--5-5--------4-|
E-|----------5-5--5-5----------5--5-7---|
I hear the monsters--they’re screaming tonight.
They’re hiding in the dark.
I feel the breeze--it’s blowing tonight,
G-|-------------------------|
D-|-------------------------|
A-|-----------------5-5-5-5-|
E-|-3-3-3-3-5-5-5-5---------|
And it blows them all away.
It blows them all away.
G-|------------------------------------------------------------------|
D-|------------------------------------------------------------------|
A-|-5-5--5-5----------5-5--5-5--------4-5-5--5-5----------5-5--5-5---|
E-|----------5-5--5-5----------5--5-7------------5-5--5-5----------5-|

G-|------------------------------|
D-|------------------------------|
A-|-5-5--5-5----------5-5--5-5---|
E-|----------5-5--5-5----------5-|
I feel my fear--it’s heavy tonight,
And it’s holing my head down.
I feel the breeze--it’s blowing tonight,
G-|-------------------------|
D-|-------------------------|
A-|-----------------5-5-5-5-|
E-|-3-3-3-3-5-5-5-5---------|
And it blows my fear away.
It blows it all away.
G-|-------------------------------------|
D-|-------------------------------------|
A-|-5-5--5-5----------5-5--5-5--------4-|
E-|----------5-5--5-5----------5--5-7---|
I hear a cry alone in the dark,
And I search from whence it came.
I find the cry is coming from me,
G-|-------------------------|
D-|-------------------------|
A-|-----------------5-5-5-5-|
E-|-3-3-3-3-5-5-5-5---------|
And it blows my pride away.
It blows it all away.

G-|--------------------------------------|
D-|--------------------------------------| \  x4
A-|-5--5-5-5-3--3-3-3-1--1-1-1--0-0--0-0-| /
E-|--------------------------------------|

G-|------------------------------------------------------------------|
D-|------------------------------------------------------------------|
A-|-5-5--5-5----------5-5--5-5--------4-5-5--5-5----------5-5--5-5---|
E-|----------5-5--5-5----------5--5-7------------5-5--5-5----------5-|

G-|------------------------------|
D-|------------------------------|
A-|-5-5--5-5----------5-5--5-5---|
E-|----------5-5--5-5----------5-|
I’m walking through the forest tonight,
And I feel a load of shame.
I feel the breeze--it’s blowing tonight,
G-|-------------------------|
D-|-------------------------|
A-|-----------------5-5-5-5-|
E-|-3-3-3-3-5-5-5-5---------|
And it blows my shame away.
It blows it all away.
G-|-------------------------------------|
D-|-------------------------------------|
A-|-5-5--5-5----------5-5--5-5--------4-|
E-|----------5-5--5-5----------5--5-7---|
I hear the monsters--they’re screaming tonight.
They’re hiding in the dark.
I feel the breeze--it’s blowing tonight,
G-|-------------------------|
D-|-------------------------|
A-|-----------------5-5-5-5-|
E-|-3-3-3-3-5-5-5-5---------|
And it blows them all away.
It blows them all away.

G-|--------------------------------------|
D-|--------------------------------------| \  x2
A-|-5--5-5-5-3--3-3-3-1--1-1-1--0-0--0-0-| /
E-|--------------------------------------|

G-|------------------------------------------------------------|
D-|------------------------------------------------------------| \ x4
A-|-5-5-5-5-5-5-5--3-3-3-3-3-3-3--1-1-1-1-1-1-1--0-0-0-0-0-0-0-| /
E-|------------------------------------------------------------|

G-|-------------------------------------------------------------|
D-|-------------------------------------------------------------|
A-|-5-5--5-5--------------------------5-5-5-5-----------------5-|
E-|----------5-5--5-5-3-3-3-3-5-5-5-5---------3-3-3-3-5-5-5-5---|

Comments about this tab

No comments/corrections found. Add your own

Complimentary Christian Ringtones
Dadamobile and CGR have teamed up to bring your favorite Christian artists right to your phone. Sign up today and get 10 complementary ringtones!
Tab Country
Did you know CGR has a sister site w/ country guitar tabs? Well we do! Its called Tab Country. It has a great archive with a lot of country tabs.
Rockin Tabs
Are you looking for a site that has rock guitar tabs? Then Rockintabs.com is the place for you. It is a budding site with many rock guitar tabs. Submit your tab today.
Tab Gallery
Tab Gallery has a compilation of christian, rock, and country tabs all in one place. Come visit us.