Bass Tabs
(THIRD DAY) OR BY ARTIST NAME (JENNIFER KNAPP)
0-9|A|B|C|D|E|F|G|H|I|J|K|L|M|N|O|P|Q|R|S|T|U|V|W|X|Y|Z

Join Us Today!

Don't strum alone...
be a part of the largest online Christian music community. Browse thousands of guitar tabs and chat w/ musicians like yourself.


It's Free!

This tab has been rated a 4.00 out of 5 for accuracy. (12 votes)Sorry, but you must be logged in to rate this tab.
Click here to log-in, or you can click here to register.
(Registration is free)

All songs owned by Integrity and Brentwood-Benson are used by permission. If you make copies of any song on this website, be sure to report your usage to CCLI.
Submitted by: bass4him98

Artist: Switchfoot
Album: The Beautiful Letdown
Song: Ammunition


Drop D tuning.
 >=note x8
 ~=let note ring

Wait for drum riff x4 then
G|----------------|
D|--22------2---2-|
A|----------------|   x12
D|2---2--2-2-2-2--|


G|--------------------------------|
D|--------------------------------|
A|0000--------------0000----------|
D|------5555--0000--------55------|


G|----------------|
D|--22------2---2-|
A|----------------|   x2
D|2---2--2-2-2-2--|


G|--------------------------------|
D|--------------------------------|
A|0000--------------0000----------|
D|------5555--0000--------55------|


G|----------------|
D|--22------2---2-|
A|----------------|   x2
D|2---2--2-2-2-2--|


Chorus:
G|------------------------------|
D|------------------------------|
A|24424-0--00-000---------------|    x3
D|----------------2-22-2-4-44444|

G|------------------------------------------------|
D|------------------------1>----------------------|
A|0>------2>------4>--------------0>------2-------|
D|------------------------------------------------|

G|----------------|
D|--22------2---2-|
A|----------------|   x2
D|2---2--2-2-2-2--|

G|--------------------------------|
D|--------------------------------|
A|0000--------------0000----------|
D|------5555--0000--------55------|

G|----------------|
D|--22------2---2-|
A|----------------|   x2
D|2---2--2-2-2-2--|

G|--------------------------------|
D|--------------------------------|
A|0000--------------0000----------|
D|------5555--0000--------55------|

Chorus
G|------------------------------|
D|------------------------------|
A|24424-0--00-000---------------|    x3
D|----------------2-22-2-4-44444|

G|------------------------------------------------|
D|------------------------1>----------------------|
A|0>------2>------4>--------------0>------2-------|
D|------------------------------------------------|

G|----------------|
D|--22------2---2-|
A|----------------|   x2
D|2---2--2-2-2-2--|

G|----------------|
D|----------------|
A|--------0~------|
D|5~--------------|

G|----------------|
D|--22------2---2-|
A|----------------|   
D|2---2--2-2-2-2--|

G|----------------|
D|----------------|
A|--------0~------|
D|5~--------------|

G|----------------|
D|--22------2---2-|
A|----------------|   
D|2---2--2-2-2-2--|

G|----------------|
D|----------------|
A|--------0~------|   x3
D|5~--------------|

G|----------------|
D|--22------2---2-|
A|----------------|   x2
D|2---2--2-2-2-2--|

Vocal solo for first part of chorus.
Come in on second with drum roll(This is insanely fast, so good luck picking 
it.)
p.s. there is somethin extra on the A string right about HERE
G|18>-----18>-----18>-----18>-----18>-----18>-----18>-----18>-----|
D|----------------------------------------------------------------|
A|----------------------------------------------------------------|
D|----------------------------------------------------------------|

G|------------------------------|
D|------------------------------|
A|24424-0--00-000---------------|    
D|----------------2-22-2-4-44444|

G|------------------------------------------------|
D|------------------------1>----------------------|
A|0>------2>------4>--------------0>------2-------|
D|------------------------------------------------|

G|----------------|
D|--22------2---2-|
A|----------------|   
D|2---2--2-2-2-2--|

G|------------------------------------------------|
D|------------------------1>----------------------|
A|0>------2>------4>--------------0>------2-------|
D|------------------------------------------------|

G|----------------|
D|--22------2---2-|
A|----------------|   x3   
D|2---2--2-2-2-2--|

That is the best that i can do peoples, but just to let you know, he throws in
some extra stuff in a few parts, but I can't figure it all out.
BTW, if you wanna you can do some hammer ons and pull offs in the chorus.

For example, I usually play the 24424 with only three picks. One on the 
first 2, one on the second 4, and one on the last 4.

Sorry it's so long but as you can see a lot of it is copyin and pastin 
so once you know all the riffs you just gotta remember what goes where

enjoy  \m/(>_<)\m/

Comments about this tab

No comments/corrections found. Add your own

Complimentary Christian Ringtones
Dadamobile and CGR have teamed up to bring your favorite Christian artists right to your phone. Sign up today and get 10 complementary ringtones!
Tab Country
Did you know CGR has a sister site w/ country guitar tabs? Well we do! Its called Tab Country. It has a great archive with a lot of country tabs.
Rockin Tabs
Are you looking for a site that has rock guitar tabs? Then Rockintabs.com is the place for you. It is a budding site with many rock guitar tabs. Submit your tab today.
Tab Gallery
Tab Gallery has a compilation of christian, rock, and country tabs all in one place. Come visit us.