Bass Tabs
(THIRD DAY) OR BY ARTIST NAME (JENNIFER KNAPP)
0-9|A|B|C|D|E|F|G|H|I|J|K|L|M|N|O|P|Q|R|S|T|U|V|W|X|Y|Z

Join Us Today!

Don't strum alone...
be a part of the largest online Christian music community. Browse thousands of guitar tabs and chat w/ musicians like yourself.


It's Free!

This tab has not yet been rated for accuracy.Sorry, but you must be logged in to rate this tab.
Click here to log-in, or you can click here to register.
(Registration is free)

All songs owned by Integrity and Brentwood-Benson are used by permission. If you make copies of any song on this website, be sure to report your usage to CCLI.
Submitted by: Sweaves

BREATHE
Marie Barnett
Copyright  1996 Mercy/Vineyard Publishing. All rights reserved.
  International copyright secured.


----------------------------------------------------------------------------
Now bear with me, this is the first bass tab ive ever written
and ive only been playing about a month or two now.
it sounded correct to me while playing along with the guitar chords at least

all corrects are greatly appreciated

some of the rhythm, especially the note progressions, are in off-rhythm...
listen to hear where they should come in

I believe this version is in the key of G
-----------------------------------------------------------------------------


Verse:

|----------|------------|
|----------|------------|
|----------|-3----2--0--| 2x
|-3--------|------------|


|-----------|-----------|-----------|------|
|-----------|-2----0----|--------2--|-0----|
|------2----|-----------|-3---------|------|
|-3---------|-----------|-----------|------|


Bridge:

|-0---------|-----------|-----------|------|
|------4----|-2----0----|------2----|-0----|
|-----------|-----------|-3---------|------| 2x
|-----------|-----------|-----------|------|


Interlude:

|-----------|----------|
|-----------|-0--------|
|-3---------|----------| 2x
|------3----|----------|

Comments about this tab

No comments/corrections found. Add your own

Complimentary Christian Ringtones
Dadamobile and CGR have teamed up to bring your favorite Christian artists right to your phone. Sign up today and get 10 complementary ringtones!
Tab Country
Did you know CGR has a sister site w/ country guitar tabs? Well we do! Its called Tab Country. It has a great archive with a lot of country tabs.
Rockin Tabs
Are you looking for a site that has rock guitar tabs? Then Rockintabs.com is the place for you. It is a budding site with many rock guitar tabs. Submit your tab today.
Tab Gallery
Tab Gallery has a compilation of christian, rock, and country tabs all in one place. Come visit us.