Bass Tabs
(THIRD DAY) OR BY ARTIST NAME (JENNIFER KNAPP)
0-9|A|B|C|D|E|F|G|H|I|J|K|L|M|N|O|P|Q|R|S|T|U|V|W|X|Y|Z

Join Us Today!

Don't strum alone...
be a part of the largest online Christian music community. Browse thousands of guitar tabs and chat w/ musicians like yourself.


It's Free!

This tab has been rated a 5.00 out of 5 for accuracy. (1 vote)Sorry, but you must be logged in to rate this tab.
Click here to log-in, or you can click here to register.
(Registration is free)

All songs owned by Integrity and Brentwood-Benson are used by permission. If you make copies of any song on this website, be sure to report your usage to CCLI.
Submitted by: ihfireinside

God of Wonders 
By Mark Byrd and Steve Hindalong


Intro and verse:

|---------------------------------------------------------------|
|---------------------------------------------------------------| intro 2x
|---------------------------------------------------------------| Verse 4x
|-0--0-0-0--0-0-2-2-2-2-4-4-4/11--11-11-11--11-11-5-5-5-5-7-7-7-|


Chorus:

These notes are not sustained.
|-------------------------------------|
|-------------------------------------|
|--------------------------4-5--------|
|-5--------0------5-7-----------------|

|-------------------------------------|
|-------------------------------------|
|--------------------------4-5--------|
|-5--------0------5-7-----------------|

This is played exactly as it looks.
|------------------------------------------------|
|------------------------------------------------|
|------------------------------------------------|
|-5---7---5---4--0---2---2--2--2-2/5-5-5-5-7-7-7-|


The bridge is the same as the verse.

Comments about this tab

No comments/corrections found. Add your own

Complimentary Christian Ringtones
Dadamobile and CGR have teamed up to bring your favorite Christian artists right to your phone. Sign up today and get 10 complementary ringtones!
Tab Country
Did you know CGR has a sister site w/ country guitar tabs? Well we do! Its called Tab Country. It has a great archive with a lot of country tabs.
Rockin Tabs
Are you looking for a site that has rock guitar tabs? Then Rockintabs.com is the place for you. It is a budding site with many rock guitar tabs. Submit your tab today.
Tab Gallery
Tab Gallery has a compilation of christian, rock, and country tabs all in one place. Come visit us.