Bass Tabs
(THIRD DAY) OR BY ARTIST NAME (JENNIFER KNAPP)
0-9|A|B|C|D|E|F|G|H|I|J|K|L|M|N|O|P|Q|R|S|T|U|V|W|X|Y|Z

Join Us Today!

Don't strum alone...
be a part of the largest online Christian music community. Browse thousands of guitar tabs and chat w/ musicians like yourself.


It's Free!

This tab has not yet been rated for accuracy.Sorry, but you must be logged in to rate this tab.
Click here to log-in, or you can click here to register.
(Registration is free)

All songs owned by Integrity and Brentwood-Benson are used by permission. If you make copies of any song on this website, be sure to report your usage to CCLI.
Submitted by: CamBoy76

Artist: Five Iron Frenzy
Title: Hurricanes
Album: All the Hype that Money Can Buy

INTRO (join in when the 2nd guitar plays)
G|------------------------|
D|---9-----9------5---7---|
A|-7---7-7---7---5--5---5-| x4
E|--------------3---------|

VERSE
G|------------------------|
D|---9-----9------5---7---|
A|-7---7-7---7---5--5---5-|
E|--------------3---------|

G|------------------------|
D|-----7-----7-----5---5--|
A|---7-----7------5-----5-|
E|-5-----5------3----3----|

G|----------------------------|
D|---10-----10------7-----7---|
A|-8----8-8----8--5---5-5---5-|
E|----------------------------|

G|----------------------|
D|---9------------------|
A|-7---7---7-----6-7-77-|
E|-------5---5-77-------|

CHORUS 
G|----------------------------|
D|----10------109-----9----99-|
A|--10--10--10---10--9-9--9---|
E|-8-------8--------7----7----|

G|----------------------------|
D|----10------10------9-------|
A|--10--10--10-------9-9------|
E|-8-------8----108-7---7-77r-|

Play Intro x2
Verse
Chorus
Intro once then play
G|--------------------------|
D|---9-----9-----9----------|
A|-7---7-7---7-7---7-77-7-7-|
E|--------------------------|

BRIDGE
notes: E D C B E

Intro x2
Chorus
Intro x3

ENDING
G|----------------------------------------|
D|---9-----9-----9-----9-----9-----9------|
A|-7---7-7---7-7---7-7---7-7---7-7---7-7r-|
E|----------------------------------------|

It's very difficult to even hear bass in this song.
I'm pretty sure it just follows the piano.
I don't hear any in the bridge, but I left 
notes if you want to play or improvise something.
God bless.

-Cam (rubberchicken76@yahoo.com)



Comments about this tab

No comments/corrections found. Add your own

Complimentary Christian Ringtones
Dadamobile and CGR have teamed up to bring your favorite Christian artists right to your phone. Sign up today and get 10 complementary ringtones!
Tab Country
Did you know CGR has a sister site w/ country guitar tabs? Well we do! Its called Tab Country. It has a great archive with a lot of country tabs.
Rockin Tabs
Are you looking for a site that has rock guitar tabs? Then Rockintabs.com is the place for you. It is a budding site with many rock guitar tabs. Submit your tab today.
Tab Gallery
Tab Gallery has a compilation of christian, rock, and country tabs all in one place. Come visit us.