Bass Tabs
(THIRD DAY) OR BY ARTIST NAME (JENNIFER KNAPP)
0-9|A|B|C|D|E|F|G|H|I|J|K|L|M|N|O|P|Q|R|S|T|U|V|W|X|Y|Z

Join Us Today!

Don't strum alone...
be a part of the largest online Christian music community. Browse thousands of guitar tabs and chat w/ musicians like yourself.


It's Free!

This tab has been rated a 5.00 out of 5 for accuracy. (7 votes)Sorry, but you must be logged in to rate this tab.
Click here to log-in, or you can click here to register.
(Registration is free)

All songs owned by Integrity and Brentwood-Benson are used by permission. If you make copies of any song on this website, be sure to report your usage to CCLI.
Submitted by: kouoneway

Relient K
More Than Useless
mmhmm
Standard Tuning
Tabbed by:  (X)one_way146

I only tabbed out the bass notes so you will have to figure out the picking 
patterns yourself.  I'm 99.9% this tab is correct.

Intro:
G|------------------------|-----------------------------|
D|------------------------|-----------------------------|
A|------------------------|-----------------------------|
E|----8----4----0----0----|----8----4----0----0---------|

Verse:
G|------------------------|-----------------------------|
D|------------------------|-----------------------------|
A|------------------------|-----------------------------|
E|----0----8----4---------|----0----8----4--------------|

Pre-chorus:
G|------------------------|-----------------------------|
D|------------------------|-----------------------------|
A|------------------------|-----------------------------|
E|----0----8----4----6----|----0----8----4----6---------|

G|------------------------|------------------------|-------------------|
D|------------------------|------------------------|-------------------|
A|---------5----3---------|---------5----3---------|-------------------|
E|----0--------------4----|----0--------------4----|----7----8----6----|

Chorus:
G|------------------------------------------------------|
D|------------------------------------------------------|
A|------------------------------------------------------|
E|----0----4----8----4----------------------------------|

Intro:
G|------------------------|-----------------------------|
D|------------------------|-----------------------------|
A|------------------------|-----------------------------|
E|----8----4----0----0----|----8----4-------------------|

Verse:
G|------------------------|-----------------------------|
D|------------------------|-----------------------------|
A|------------------------|-----------------------------|
E|----0----8----4---------|----0----8----4--------------|

G|------------------------|-----------------------------|
D|------------------------|-----------------------------|
A|------------------------|-----------------------------|
E|----0----8----4----6----|----0----8----4----6---------|

Pre-Chorus:
G|------------------------|------------------------|-------------------|
D|------------------------|------------------------|-------------------|
A|---------5----3---------|---------5----3---------|-------------------|
E|----0--------------4----|----0--------------4----|----7----8----6----|

Chorus:
G|------------------------|------------------------------|
D|------------------------|------------------------------|
A|------------------------|------------------------------|
E|----0----4----8----4----|----0----7----8----4----------|

Bridge:
G|------------------------|------------------------------|
D|------------------------|------------------------------|
A|------------------------|------------------------------|
E|----0~~----8~----4~-----|----0~~----8~----4~-----------|

G|------------------------|------------------------------|
D|------------------------|------------------------------|
A|------------------------|------------------------------|
E|----4----8----4----0----|----4----8----0----6----------|

G|------------------------|-------------------------------|
D|------------------------|-------------------------------|
A|------------------------|-------------------------------|
E|----4----6----8----6----|----4----6----8----8-6-8-6-----|

Chorus:
G|------------------------|------------------------------|
D|------------------------|------------------------------|
A|------------------------|------------------------------|
E|----0----4----8----4----|----0----7----8----4----------|

Outro:
G|----------------------------------------------------------------|
D|----------------------------------------------------------------|
A|----------------------------------------------------------------|
E|----0~----4~----0~----4~----0~----4~----0~----4~----0~----------|

Comments about this tab

curt02k1 - 2004-05-23

perfect


jossyb2000 - 2004-05-28

Dont think this bit is quite right:

G
Give us clean hands
D
Give us pure hearts
Em D G
Let us not lift our souls to another (repeat 1x)

think it shuld be:


G
Give us clean hands
D
Give us pure hearts
Em D C
Let us not lift our souls to another (repeat 1x)




CryingNut - 2004-05-30

i dont understand, they dont sound right
is this tuned different?


CryingNut - 2004-06-02

can anyone post a new tab with standard tuning?


squishy - 2004-07-10

niceee


Hunter2 - 2004-07-18

It is standard tuning, and works great (although I agree with the change from G to C posted above). I actually figured out the chords on my own and just checked here to make sure I got them right... they matched pretty much perfectly.


cmusicfan - 2004-07-27

I believe some people play this song on a Capo 3. I'm not sure though, but it's worth a shot.


kenshiphoenix - 2004-10-15

play it with a capo on 1st fret... its perfect.. jus like de record.. awesome ^_^


Kyubi-Unleashed - 2004-12-21

i was checking this to another one from pwarchive and they say its something like
instead of that d its d/f# so...


Guitar09 - 2005-02-25

This song is great me and my band play it just like this.


SlickStix16 - 2005-07-10

What is the strum pattern for this song? Prefferably one that is easiest and sounds best


Adge.Sauce - 2005-07-16

Does anyone know the pick pattern on one of the versions? It's really neat!


craikk - 2005-08-04

yes it should end with C instead of G and try using a Cadd9 (x32033) instead of C


litaichi - 2005-09-16

Best one is right here:

http://www.charliehall.com/pdf/giveus%20clean%20hands.pdf

It came from his own personal website...so it can't be wrong!


snowstixs13 - 2006-01-16

http://www.christianguitar.org/csong1767/Charlie-Hall-Give-Us-Clean-Hands

thats the right site now


Add a comment/correction

Complimentary Christian Ringtones
Dadamobile and CGR have teamed up to bring your favorite Christian artists right to your phone. Sign up today and get 10 complementary ringtones!
Tab Country
Did you know CGR has a sister site w/ country guitar tabs? Well we do! Its called Tab Country. It has a great archive with a lot of country tabs.
Rockin Tabs
Are you looking for a site that has rock guitar tabs? Then Rockintabs.com is the place for you. It is a budding site with many rock guitar tabs. Submit your tab today.
Tab Gallery
Tab Gallery has a compilation of christian, rock, and country tabs all in one place. Come visit us.