Bass Tabs
(THIRD DAY) OR BY ARTIST NAME (JENNIFER KNAPP)
0-9|A|B|C|D|E|F|G|H|I|J|K|L|M|N|O|P|Q|R|S|T|U|V|W|X|Y|Z

Join Us Today!

Don't strum alone...
be a part of the largest online Christian music community. Browse thousands of guitar tabs and chat w/ musicians like yourself.


It's Free!

This tab has been rated a 2.40 out of 5 for accuracy. (5 votes)Sorry, but you must be logged in to rate this tab.
Click here to log-in, or you can click here to register.
(Registration is free)

All songs owned by Integrity and Brentwood-Benson are used by permission. If you make copies of any song on this website, be sure to report your usage to CCLI.
Submitted by: BassForJesus

Meant To Live
Switchfoot
Sparrow Records, The Beautiful Letdown
S= snag
P= pull off
H= hammer on
A number over another number is a powerchord, remember that

If you like the intro, hereís how it goes

E-------------------------------       --3-55-3-55-3-55
A--7-------5-----7-------5---7     
D--9-9s---7-9s--9-9s --7---9   x2
G-------------------------------

E--------------------------------
A------4-5----- 4-0-2---------
D-4-0------4-0-----------------
G--------------------------------

The Verse is simple, you pretty much play when heís done singing (with the 
guitar).
While heís singing, if you want to, thump the low G.

E-------------------------------------------
A------------------------------------------
D-4-0-4-0-4-0-4-5-4-4-0-4-0-4-5-4-7
G------------------------------------------

Chorus
Sixteenth notes, Relient K style Have fun

E------------------------------------------------------
A------------------------------------------------------
D-0000-2222-4444-5555-4444-2222-4444-545
G------------------------------------------------------
Repeat
At end of 2nd time do 
G-2222-7777-
Intead of the other ending

Bridge Thingy
E-222222222222-/-13-13-13-13-13-13 repeat

Thatís it, have fun, and heck, throw your own spin on it!

Comments about this tab

No comments/corrections found. Add your own

Complimentary Christian Ringtones
Dadamobile and CGR have teamed up to bring your favorite Christian artists right to your phone. Sign up today and get 10 complementary ringtones!
Tab Country
Did you know CGR has a sister site w/ country guitar tabs? Well we do! Its called Tab Country. It has a great archive with a lot of country tabs.
Rockin Tabs
Are you looking for a site that has rock guitar tabs? Then Rockintabs.com is the place for you. It is a budding site with many rock guitar tabs. Submit your tab today.
Tab Gallery
Tab Gallery has a compilation of christian, rock, and country tabs all in one place. Come visit us.