Bass Tabs
(THIRD DAY) OR BY ARTIST NAME (JENNIFER KNAPP)
0-9|A|B|C|D|E|F|G|H|I|J|K|L|M|N|O|P|Q|R|S|T|U|V|W|X|Y|Z

Join Us Today!

Don't strum alone...
be a part of the largest online Christian music community. Browse thousands of guitar tabs and chat w/ musicians like yourself.


It's Free!

This tab has been rated a 5.00 out of 5 for accuracy. (2 votes)Sorry, but you must be logged in to rate this tab.
Click here to log-in, or you can click here to register.
(Registration is free)

All songs owned by Integrity and Brentwood-Benson are used by permission. If you make copies of any song on this website, be sure to report your usage to CCLI.
Submitted by: KrashOmnis

All For You - By Jonah33
From their Self-Titled album
Ardent Records

Tuning - D A D G (Drop D)


Drop D is the practice of tuning the E string down to the note D. This is 
mainly for guitars as tuning to Drop D for a guitar makes power cords 
straight across the fret board on the same fret.

Example:
Standard tuning power chord
G|---|
D|-3-|
A|-3-|
E|-1-|

Drop D tuning Power cord (same chord)
G|---|
D|-3-|
A|-3-|
D|-3-|

Some Markings I will use -
. - Stacato mark
_ - Legato mark
^ - Accent mark
~ - let ring mark
x - Mute mark

The introduction has a very low, almost Bstring range sound. Since this is 
for a 4 string I decided that using the 8th fret on the 4th string would 
achieve that sound the best. Since the 8th fret doesnt always sounds great 
on 4 string in Drop D, the first fret on the A string works as a good 
substitute. It also makes for less position changing.


(0:00)
Introduction (Bass Only, Vocals in 2nd time)

Grave (straight 8ths)
G||------------------|-----------------|-----------------|-----------------|
D||o-----------------|-----------------|-----------------|-----------------|
A||o-----------------|-----------------|-----------------|-----------------|
D||--0-0-0-0-0-0-0-0-|-8-8-8-8-8-8-8-8-|-3-3-3-3-3-3-3-3-|-2-2-2-2-2-2-2-2-|


                                                       1,2.            
                                                      =================] 
-----------------|-----------------|-----------------|-----------------||
-----------------|-----------------|-----------------|----------------o||
-----------------|-----------------|-----------------|----------------o||
-0-0-0-0-0-0-0-0-|-8-8-8-8-8-8-8-8-|-3-3-3-3-3-3-3-3-|-5-5-5-6-6-5-5-3-||

 3.
================]
-----------------|
-----------------|
-----------------|
-5-5-5-5h6--5--3-|



(0:38)
Verse

Vivace!(or ROCK!)    simile
G||-----------------|-----------------|-----------------|-----------------|
D||o----------------|-----------------|-----------------|-----------------|
A||o----------------|-----------------|-----------------|-----------------|
D||-0--0----x-0-x-0-|-8--8----x-8-x-8-|-3--3----x-3-x-3-|-2--2----x-2-x-2-|
    _  _      .   .

-----------------|-----------------|-----------------|-----------------||
-----------------|-----------------|-----------------|----------------o||
-----------------|-----------------|-----------------|----------------o||
-0--0----x-0-x-0-|-8--8----x-8-x-8-|-3--3----x-3-x-3-|-5-5-5-6---5-5-3-||
                                                       . . . _   _ _ _



(1:03)
Prechorus  
                                                           1,2,3.          
Half-Time Feel        simile                              ================]  
G||------------------|-----------------|-----------------|-----------------||
D||o-----------------|-----------------|-----------------|----------------o||
A||o-----------------|-----------------|-----------------|----------------o||
D||--0-0-0-----------|-6-6-6-----------|-5-5-5-----------|-3-3-3---1-1-1---||

 4.
================]
-----------------|
-----------------|
-----------------|
-3-3-3---1-1-1-1-|
     . . .



(1:27)
Chorus

                                      1.
Straight 8ths                         ==================================]
G|-----------------|-----------------|-----------------|-----------------||
D|o----------------|-----------------|-----------------|----------------o||
A|o----------------|-3-3-3-3-3-3-3-3-|-----------------|----------------o||
D|-0-0-0-0-0-0-0-0-|-----------------|-4-4-4-4-4-4-4-4-|-5-5-5-5-5-5-5-5-||
  

 2.
==================================]
-----------------|-----------------|
-----------------|-----------------|
-2-2-2-2-2-2-2-2-|-1-1-1-1-1-1-1-1-|
-----------------|-----------------|



(1:40)
Interlude

Grave (straight 8ths)
G||-----------------|-----------------|-----------------|-----------------||
D||-----------------|-----------------|-----------------|-----------------||
A||-----------------|-----------------|-----------------|-----------------||
D||-0-0-0-0-x-x-x-x-|-8-8-8-8-x-x-x-x-|-3-3-3-3-x-x-x-x-|-2-2-2-2-x-x-x-x-||



(1:46)
Verse
 
                                                          1.        
Straight 8ths                                            =================]
G||-----------------|-----------------|-----------------|------------------||
D||o----------------|-----------------|-----------------|-----------------o||
A||o----------------|-----------------|-----------------|-----------------o||
G||-0-0-0-0-0-0-0-0-|-8-8-8-8-8-8-8-8-|-3-3-3-3-3-3-3-3-|-2-2-2-2-2-2-2-2--||

 2.
================]
-----------------||
-----------------||
-----------------||
-5-5-5-5h6--5--3-||



(1:58)

Vivace!(or ROCK!)    simile
G||-----------------|-----------------|-----------------|-----------------|
D||o----------------|-----------------|-----------------|-----------------|
A||o----------------|-----------------|-----------------|-----------------|
D||-0--0----x-0-x-0-|-8--8----x-8-x-8-|-3--3----x-3-x-3-|-2--2----x-2-x-2-|
    _  _      .   .

-----------------|-----------------|-----------------|-----------------||
-----------------|-----------------|-----------------|----------------o||
-----------------|-----------------|-----------------|----------------o||
-0--0----x-0-x-0-|-8--8----x-8-x-8-|-3--3----x-3-x-3-|-5-5-5-6---5-5-3-||
                                                       . . . _   _ _ _


(2:11)
Prechorus  
                                                           1,2,3.             
Half-Time Feel        simile                              ================]
G||------------------|-----------------|-----------------|-----------------||
D||o-----------------|-----------------|-----------------|----------------o||
A||o-----------------|-----------------|-----------------|----------------o||
D||--0-0-0-----------|-6-6-6-----------|-5-5-5-----------|-3-3-3---1-1-1---||
     . . .

 4.
================]
-----------------|
-----------------|
-----------------|
-3-3-3---1-1-1-1-|

(2:35)
Chorus

                                      1,3.
Straight 8ths                         ==================================]
G|-----------------|-----------------|-----------------|-----------------||
D|o----------------|-----------------|-----------------|----------------o||
A|o----------------|-3-3-3-3-3-3-3-3-|-----------------|----------------o||
D|-0-0-0-0-0-0-0-0-|-----------------|-4-4-4-4-4-4-4-4-|-5-5-5-5-5-5-5-5-||

 2,4.
==================================]
-----------------|-----------------|
-----------------|-----------------|
-2-2-2-2-2-2-2-2-|-1-1-1-1-1-1-1-1-|
-----------------|-----------------|




(3:00)
Interlude

Half-Time feel
G||------------------|-----------------|-----------------|-----------------|
D||o-----------------|-----------------|-----------------|-----------------|
A||o-^------^--------|-----------------|-^------^--------|-----------------|
D||--8------8-----8--|-8-8~---8h10~----|-0------0-----0--|-0-0~----12p10~--|
     _      _          .                                   . 
                                     1.
                                    ==================================]
-----------------|-----------------|-----------------|-----------------||
-----------------|-----------------|-----------------|----------------o||
-^------^--------|-----------------|-----------------|----------------o||
-8------8-----8--|-8-8~---8h10~----|-0-3-5-0-6-5-0-3-|-5-0-6-5-3-5-1~--||
 _      _          .                 . . . . . . . .   . . . . . . _

 2.
==================================]    
-----------------|-----------------||-----------------|-----------------||
-----------------|-----------------||o----------------|----------------o||
-----------------|-----------------||o----------------|----------------o||
-0-3-5-0-6-5-0-3-|-5-0-6-5-3-5-1~--||-0-3-5-0-6-5-0-3-|-5-0-6-5-3-5-1~--||
 . . . . _ _ . .   . . . . . . _      . . . . . . . .   . . . . . . _


-----------------|-----------------|
-----------------|-----------------|
-----------------|-------------^---|
-0-3-5-0-6-5-0-3-|-5-0-6-5-3-5-1~--|
 . _ _ . _ _ . _   _ . _ _ . . _



(3:34)
Chorus
                                      1,3.
Straight 8ths                         ==================================]
G|-----------------|-----------------|-----------------|-----------------||
D|o----------------|-----------------|-----------------|----------------o||
A|o----------------|-3-3-3-3-3-3-3-3-|-----------------|----------------o||
D|-0-0-0-0-0-0-0-0-|-----------------|-4-4-4-4-4-4-4-4-|-5-5-5-5-5-5-5-5-||
 

 2,4.
==================================]
-----------------|-----------------|
-----------------|-----------------|
-2-2-2-2-2-2-2-2-|-1-1-1-1-1-1-1-1-|
-----------------|-----------------|
 
 


(3:59)
Outro
    3 Times
G||-----------------|-----------------||
D||o----------------|----------------o||
A||o----------------|----------------o||
D||-0-3-5-0-6-5-0-3-|-5-0-6-5-3-5-1~--||
    . . . . . . . .   . . . . . . _
                                

G|-----------------|----------------|----||
D|-----------------|----------------|----||
A|-----------------|----------------|----||
D|-0-3h5-0-6p5-0-3-|-h5-0-6p5-3h5-3-|-1~-||


Tabbed out all by ear
by KrashOmnis

Comments about this tab

No comments/corrections found. Add your own

Complimentary Christian Ringtones
Dadamobile and CGR have teamed up to bring your favorite Christian artists right to your phone. Sign up today and get 10 complementary ringtones!
Tab Country
Did you know CGR has a sister site w/ country guitar tabs? Well we do! Its called Tab Country. It has a great archive with a lot of country tabs.
Rockin Tabs
Are you looking for a site that has rock guitar tabs? Then Rockintabs.com is the place for you. It is a budding site with many rock guitar tabs. Submit your tab today.
Tab Gallery
Tab Gallery has a compilation of christian, rock, and country tabs all in one place. Come visit us.