Bass Tabs
(THIRD DAY) OR BY ARTIST NAME (JENNIFER KNAPP)
0-9|A|B|C|D|E|F|G|H|I|J|K|L|M|N|O|P|Q|R|S|T|U|V|W|X|Y|Z

Join Us Today!

Don't strum alone...
be a part of the largest online Christian music community. Browse thousands of guitar tabs and chat w/ musicians like yourself.


It's Free!

This tab has not yet been rated for accuracy.Sorry, but you must be logged in to rate this tab.
Click here to log-in, or you can click here to register.
(Registration is free)

All songs owned by Integrity and Brentwood-Benson are used by permission. If you make copies of any song on this website, be sure to report your usage to CCLI.
Submitted by: Highdragon69

Artist: Project 86
Ablum: Truthless Heroes
Song: S.M.C.
Copyright 2002 Atlantic Records
Tabbed By: Highdragon69

Here is the bass tabs for S.M.C. i'm pretty sure this is the correct tab
Great song to play and pretty easy, some of Steven's licks can be difficult.

Listen for timing

Drop D Tuning

Intro/Verse

G----------------------------------------
D----------------------------------------
A----------------------------------------
D-0-0-0-3-3-3-5-5-5-6-6-6-5-5-5-0-3-3-0--

Fill 1
this part is very hard to hear, played fast
i'm pretty sure this is right                    

G--------------------------------
D--------------------------------
A-5-6-5-5-5-3-5-6-5-5-3-5--------
D--------------------------------

if you can double check it to see if its correct let me know
but i'm pretty sure it's right

Pre-Chorus
Wait for guitar to come back on the last note

G------------------------------------------------------
D------------------------------------------------------
A-1-1-1-1-3-3-3-3-55-------1-1-1-1-3-3-3-3-55----------
D---------------------------------------------------33-


Chorus

G------------------------------------------
D------------------------------------------
A---------------5-5---------------1-1-1-1--
D-0-6-5-3-3-6-5-----6-5-0-3-3-3-3----------

Bridge

G------------------------------------
D------------------------------------    Repeat as necessary  
A-----5-----6-----5------------------
D-0-6---0-5---0-6-----0-3-5-6-5-3-5--

Outro
D-0-0-0-0-0-

Order of song

Intro/Verse X4
Fill 1
Intro/Verse X2
Fill 1
Intro/Verse X2
Pre-Chorus  X2
Chorus      X2
Fill 1
Intro/Verse X2
Fill 1
Intro/Verse X2
Pre-Chorus  X2
Chorus      X4
Bridge      X8
Chorus      X4
Outro

well thats it, if there are any corrections or comments please let me know
you can give me feedback at zs371304@ohio.edu, thanks      PROJECT ROCKS

Comments about this tab

No comments/corrections found. Add your own

Complimentary Christian Ringtones
Dadamobile and CGR have teamed up to bring your favorite Christian artists right to your phone. Sign up today and get 10 complementary ringtones!
Tab Country
Did you know CGR has a sister site w/ country guitar tabs? Well we do! Its called Tab Country. It has a great archive with a lot of country tabs.
Rockin Tabs
Are you looking for a site that has rock guitar tabs? Then Rockintabs.com is the place for you. It is a budding site with many rock guitar tabs. Submit your tab today.
Tab Gallery
Tab Gallery has a compilation of christian, rock, and country tabs all in one place. Come visit us.