Bass Tabs
(THIRD DAY) OR BY ARTIST NAME (JENNIFER KNAPP)
0-9|A|B|C|D|E|F|G|H|I|J|K|L|M|N|O|P|Q|R|S|T|U|V|W|X|Y|Z

Join Us Today!

Don't strum alone...
be a part of the largest online Christian music community. Browse thousands of guitar tabs and chat w/ musicians like yourself.


It's Free!

Ghoti Hook - Love By The Numbers

This tab has not yet been rated for accuracy.Sorry, but you must be logged in to rate this tab.
Click here to log-in, or you can click here to register.
(Registration is free)

All songs owned by Integrity and Brentwood-Benson are used by permission. If you make copies of any song on this website, be sure to report your usage to CCLI.
+------------------------------------------+
\  Artist     :  Ghoti Hook                 \
/  Song       :  Love By The Numbers        /
\  Instrument :  Bass                       \
/  Tabbed by  :  Mike!    /
\___________________________________________\

Intro:
G-|-------------------------------------------------|
D-|-------------------------------------------------|
A-|-------4-6-4-2-1-2-4-1-4-------4-6-4-2-1-2-4-1-4-|
E-|-2-1-2-------------------2-1-2-------------------|

G-|---------------------------------|
D-|---------------------------------|
A-|---------4-4-4-4-2-2-2-2-2-2-2-2-|
E-|-2-2-2-2-------------------------|
1-2-3-4-5-6-7-8-9-10-11-12 days
Is all the time I can spend with you, ‘cause you live so far away.
1-2-3-4-5-6-7-8-9-10-11 thousand miles
Is how far I have to get to you just to see you smile.

G-|---------------------------------|
D-|---------------------------------|
A-|-6-6-6-4-2-2-2-2---------4-4-4-4-|
E-|-----------------2-2-2-2---------|
Nothing seems to matter.
Except the fact that you’ll one day be with me.
Nothing seems to matter.
Except the fact that you’ll one day be with me.

G-|---------------------------------------------|
D-|---------------------------------------------|
A-|-------4-6-4-2-1-2-4-1-4-------4-6-4-2-1-2-4-|
E-|-2-1-2-------------------2-1-2---------------|

G-|---------------------------------|
D-|---------------------------------|
A-|---------4-4-4-4-2-2-2-2-2-2-2-2-|
E-|-2-2-2-2-------------------------|
1-2-3-4-5-6-7-8-9-10-11-12 hours
Is how long it would take for me just to give you flowers.
1-2-3-4-5-6-7-8-9-10-11-12 calls
Is how many times I’d call you each month so we can talk about it all.

G-|---------------------------------|
D-|---------------------------------|
A-|-6-6-6-4-2-2-2-2---------4-4-4-4-|
E-|-----------------2-2-2-2---------|
Nothing seems to matter.
Except the fact that you’ll one day be with me.
Nothing seems to matter.
Except the fact that you’ll one day be with me.

G-|-------------------------------------------------------------------------|
D-|-------------------------------------------------------------------------|
A-|-6-6-6-6-6-6-6-6-6-4-4-4-4-4-4-4-4-4-2-2-2-2-2-2-2-2-2-2-2-2-2-2-2-2-2-2-|
E-|-------------------------------------------------------------------------|

G-|-------------------------------------------------------------------------|
D-|-------------------------------------------------------------------------|
A-|-6-6-6-6-6-6-6-6-6-4-4-4-4-4-4-4-4-4-2-2-2-2-2-2-2-2-2-2-2-2-2-2-2-2-2-2-|
E-|-------------------------------------------------------------------------|

G-|---------------------------------|
D-|---------------------------------|
A-|---------4-4-4-4-2-2-2-2-2-2-2-2-|
E-|-2-2-2-2-------------------------|
1-2-3-4-5-6-7-8-9-10-11-12 months
Is how long that I’m having to wait until you’re home to where we’re from.
1-2-3-4-5-6-7-8-9-10-11-12 prayers
Is how many times I pray each night, ‘cause that’s how much I care.

G-|---------------------------------|
D-|---------------------------------|
A-|-6-6-6-4-2-2-2-2---------4-4-4-4-|
E-|-----------------2-2-2-2---------|
Nothing seems to matter.
Except the fact that you’ll one day be with me.
Nothing seems to matter.
Except the fact that you’ll one day be with me.

G-|-------------------------------------------------------------------------|
D-|-------------------------------------------------------------------------|
A-|-6-6-6-6-6-6-6-6-6-4-4-4-4-4-4-4-4-4-2-2-2-2-2-2-2-2-2-2-2-2-2-2-2-2-2-2-|
E-|-------------------------------------------------------------------------|

G-|-------------------------------------------------------------------------|
D-|-------------------------------------------------------------------------|
A-|-6-6-6-6-6-6-6-6-6-4-4-4-4-4-4-4-4-4-2-2-2-2-2-2-2-2-2-2-2-2-2-2-2-2-2-2-|
E-|-------------------------------------------------------------------------|

G-|---------------------------------------------------------|
D-|---------------------------------------------------------| \ repeat fading
A-|-6-6-----6-6-4-4-4-4-4-4-4-4-2-2-----2-2-2-2-2-2-2-2-2-2-| / out
E-|---------------------------------------------------------|

Comments about this tab

Tenth Ave rocks - 2008-11-08

sounds great, great job.


Add a comment/correction

Complimentary Christian Ringtones
Dadamobile and CGR have teamed up to bring your favorite Christian artists right to your phone. Sign up today and get 10 complementary ringtones!
Tab Country
Did you know CGR has a sister site w/ country guitar tabs? Well we do! Its called Tab Country. It has a great archive with a lot of country tabs.
Rockin Tabs
Are you looking for a site that has rock guitar tabs? Then Rockintabs.com is the place for you. It is a budding site with many rock guitar tabs. Submit your tab today.
Tab Gallery
Tab Gallery has a compilation of christian, rock, and country tabs all in one place. Come visit us.