Bass Tabs
(THIRD DAY) OR BY ARTIST NAME (JENNIFER KNAPP)
0-9|A|B|C|D|E|F|G|H|I|J|K|L|M|N|O|P|Q|R|S|T|U|V|W|X|Y|Z

Join Us Today!

Don't strum alone...
be a part of the largest online Christian music community. Browse thousands of guitar tabs and chat w/ musicians like yourself.


It's Free!

This tab has not yet been rated for accuracy.Sorry, but you must be logged in to rate this tab.
Click here to log-in, or you can click here to register.
(Registration is free)

All songs owned by Integrity and Brentwood-Benson are used by permission. If you make copies of any song on this website, be sure to report your usage to CCLI.
Submitted by: RS1980

Lied 11 - Light my way

Great song, quite hard but great :)
If you want to play it correctly, tune the low E down to D
or use a 5-String Bass (then you have to rewrite the Frets for the D String)


Piano at beginning
Then 2 short bass slides

Intro
  1u2u1u2u 1u2u1u2u
G|---2----|--------
D|--2--4--|----3-5- (2x)
A|-0----4-|-3-3-3-5
D|-------4|--------

Vers
 Ring an brighter day...
  1u2u1u2u 1u2u1u2u
G|---2----|--------
D|--2--4--|----3-5- (3x)
A|-0----4-|-3-3-3-5
D|-------4|--------
 Got to find the truth
G|---2----|--------
D|--2--4--|-3-3---- (1x)
A|-0----4-|--------
D|-------4|----5555



Chorus
  1 u 2 u 1 u 2 u  1 u 2 u 1 u 2 u  1 u 2 u 1 u 2 u  1 u 2 u 1 u 2 u
G|----------------|----------------|----------------|----------------|
D|----------------|---------------0|--0-0-0-0-0-0-00|--0-0-0-0-0-0---|
A|0-0-0-0-0-0-0-02|--2-2-2-2-2-2-2-|----------------|---------------0|
D|----------------|----------------|----------------|-------------45-|

  1 u 2 u 1 u 2 u  1 u 2 u 1 u 2 u  1 u 2 u 1 u 2 u  1 u 2 u 1 u 2 u
G|----------------|----------------|----------------|--------2--2--2-|
D|----------------|---------------0|--0-0-0-0-0-0-00|--0-0-0---------|
A|--0-0-0-0-0-0-02|--2-2-2-2-2-2-2-|----------------|----------------|
D|----------------|----------------|----------------|----------------|


Intro
vers
chorus (2x)


Bridge mit Gitarrenfillin:
  1 u 2 u 1 u 2 u  1 u 2 u 1 u 2 u 
G|----------------|----------------|
D|----------------|----------------| (4x)
A|0--0---0---0----|----------------|
D|-5---5---5---5-4|----4--4----4---|


Intro
Strophe

chorus with different ending (2:50)
  1 u 2 u 1 u 2 u  1 u 2 u 1 u 2 u  1 u 2 u 1 u 2 u  1 u 2 u 1 u 2 u
G|----------------|----------------|----------------|----------------|
D|----------------|---------------0|--0-0-0-0-0-0-00|--0-0-0-0-0-0---|
A|0-0-0-0-0-0-0-02|--2-2-2-2-2-2-2-|----------------|---------------0|
D|----------------|----------------|----------------|-------------45-|

  1 u 2 u 1 u 2 u  1 u 2 u 1 u 2 u  1 u 2 u 1 u 2 u  1 u 2 u 1 u 2 u
G|----------------|----------------|----------------|---5-5--5--5--5-|
D|----------------|---------------0|--0-0-0-0-0-0-07|-77-7-77-77-77--|
A|--0-0-0-0-0-0-02|--2-2-2-2-2-2-2-|----------------|---------------0|
D|----------------|----------------|----------------|----------------|


chorus going down to low D
  1 u 2 u 1 u 2 u  1 u 2 u 1 u 2 u  1 u 2 u 1 u 2 u  1 u 2 u 1 u 2 u
G|----------------|----------------|----------------|----------------|
D|----------------|----------------|----------------|----------------|
A|0-0-0-0-0-0-0-0-|----------------|---------0------|---------------0|
D|---------------4|--4-4-4-4-4-4><0|--0-00-05-0000-0|0-0-0-0-0-0-0-0-|


  1 u 2 u 1 u 2 u  1 u 2 u 1 u 2 u  1 u 2 u 1 u 2 u  1 u 2 u 1 u 2 u
G|----------------|----------------|----------------|----------------|
D|----------------|----------------|----------------|----------------|
A|0-0-0-0-0-0-0-0-|----------------|----------------|----------------|
D|---------------4|--4-4-4-4-4-4><0|--0-222-444-2223|--3-222-0--0--0-|


End:
  1 u 2 u 1 u 2 u  1 u 2 u 1 u 2 u 
G|----------------|----------------|
D|----------------|----------------| 
A|0--0---0---0----|----------------|
D|-5---5---5---5-4|----4--4----4---|

  1 u 2 u 1 u 2 u  1 u 2 u 1 u 2 u 
G|----------------|----------------|
D|----------------|----------------| 
A|0--0---0---0----|----------------|
D|-5---5---5---5-4|->E-GGEG--GGGGG-|   

  1 u 2 u 1 u 2 u  1 u 2 u 1 u 2 u 
G|----------------|----------------|
D|----------------|----------------| 
A|0--0---0---0----|----------------|
D|-5---5---5---5-4|----B--4-4--44--|

  1 u 2 u 1 u 2 u  1 u 2 u 1 u 2 u 
G|----------------|----------------|
D|----------------|----------------| 
A|0--0---0---0----|----------------|
D|-5---5---5---5-4|->E-GGEG--GGGGG-|


play the 4 measures again

und dann:

  1 u 2 u 1 u 2 u  1 u 2 u 1 u 2 u 
G|----------------|----------------|
D|----------------|----------------| 
A|0--0---0---0----|----------------|
D|-5---5---5---5-4|4444444444444444|


Tabbed by RS1980

Comments about this tab

No comments/corrections found. Add your own

Complimentary Christian Ringtones
Dadamobile and CGR have teamed up to bring your favorite Christian artists right to your phone. Sign up today and get 10 complementary ringtones!
Tab Country
Did you know CGR has a sister site w/ country guitar tabs? Well we do! Its called Tab Country. It has a great archive with a lot of country tabs.
Rockin Tabs
Are you looking for a site that has rock guitar tabs? Then Rockintabs.com is the place for you. It is a budding site with many rock guitar tabs. Submit your tab today.
Tab Gallery
Tab Gallery has a compilation of christian, rock, and country tabs all in one place. Come visit us.