Bass Tabs
(THIRD DAY) OR BY ARTIST NAME (JENNIFER KNAPP)
0-9|A|B|C|D|E|F|G|H|I|J|K|L|M|N|O|P|Q|R|S|T|U|V|W|X|Y|Z

Join Us Today!

Don't strum alone...
be a part of the largest online Christian music community. Browse thousands of guitar tabs and chat w/ musicians like yourself.


It's Free!

This tab has not yet been rated for accuracy.Sorry, but you must be logged in to rate this tab.
Click here to log-in, or you can click here to register.
(Registration is free)

All songs owned by Integrity and Brentwood-Benson are used by permission. If you make copies of any song on this website, be sure to report your usage to CCLI.
Submitted by: mr-devious

Song: Man Made Weapon
Band: Lucerin Blue
Album: Tales of the Knife
Label: Tooth and Nail

ok, ok kids, yet another lucerin blue tab
it's been a while since my last submission
and I plan to submit alot in the next month

I have added nifty time markers so when you
play along you know exactly what goes where

but anyway, the tuning in this song, or in
any other lucerin blue song is C#

> = play note 8 times
* = let note ring

0:24
|------------------------|
|------------------------|
|-2-0-2-------55-5-2-0-2-|
|-------00-33------------|

0:39
|----|
|----|
|----|
|-2*-|

0:43
|------|
|------|
|-2222-|
|------|

0:45
|------------------------------|
|------------------------------|
|-2>----5>----2>----5>---------|
|----0>----3>----0>----7-5-3-0-|

1:08
|--------|
|--------|
|-2-0-2*-|
|--------|

1:15
|-------------------------------|
|-------------------------------|
|-2-0-2-------55-5-2-0-2--------|
|-------00-33------------000-3*-|

1:39
|-----------|
|-----------|
|-----------|
|-333*-000*-|

2:02
|---------|
|---------|
|-2>>-----|
|-----3>>-|

2:25
|---------|
|---------|
|---------|
|-7-5-3-0-|

2:36
|---------------------------------------------|
|---------------------------------------------|
|-2>----5>----2>----5>------------2>----5>----|
|----0>----3>----0>----3>-7-5-3-0----0>----3>-|

2:48
|-----------|
|-----------|
|-2-0-2-0-3-|
|-----------|

well, those are the notes as I've heard them
anyway, I'm still a little unsure about the
riff, and the part that goes, "7-5-3-0" so
if anyone has a suggestion I'd like to hear it

Comments about this tab

No comments/corrections found. Add your own

Complimentary Christian Ringtones
Dadamobile and CGR have teamed up to bring your favorite Christian artists right to your phone. Sign up today and get 10 complementary ringtones!
Tab Country
Did you know CGR has a sister site w/ country guitar tabs? Well we do! Its called Tab Country. It has a great archive with a lot of country tabs.
Rockin Tabs
Are you looking for a site that has rock guitar tabs? Then Rockintabs.com is the place for you. It is a budding site with many rock guitar tabs. Submit your tab today.
Tab Gallery
Tab Gallery has a compilation of christian, rock, and country tabs all in one place. Come visit us.