Bass Tabs
(THIRD DAY) OR BY ARTIST NAME (JENNIFER KNAPP)
0-9|A|B|C|D|E|F|G|H|I|J|K|L|M|N|O|P|Q|R|S|T|U|V|W|X|Y|Z

Join Us Today!

Don't strum alone...
be a part of the largest online Christian music community. Browse thousands of guitar tabs and chat w/ musicians like yourself.


It's Free!

Ghoti Hook - Just What I Needed

This tab has not yet been rated for accuracy.Sorry, but you must be logged in to rate this tab.
Click here to log-in, or you can click here to register.
(Registration is free)

All songs owned by Integrity and Brentwood-Benson are used by permission. If you make copies of any song on this website, be sure to report your usage to CCLI.
+------------------------------------------+
\  Artist     :  Ghoti Hook                 \
/  Song       :  Just What I Needed         /
\  Instrument :  Bass                       \
/  Tabbed by  :  Mike!    /
\___________________________________________\

Intro:
G-|---------------------------------|
D-|---------------------------------|
A-|-7--7--7--7--7-7--7-7--7-7--7-7--|
E-|---------------------------------|

G-|-----------------|
D-|-----------------|
A-|-7-7-----4-4-----|
E-|-----7-7-----4-4-|
i don't mind you coming here
and wasting all my time
'cause when you're standing oh so near
i kinda lose my mind
it's not the perfume that you wear
it's not the ribbons in your hair
G-|-----------------|
D-|-----------------|
A-|-7-7-------------|
E-|-----7-7-4-4-5-5-|
i don't mind you coming here
and wasting all my time

G-|-----------------------------------------------------------------|
D-|-----------------------------------------------------------------|
A-|-7-7-7-7-7-7-7-7-----------------4-4-4-4-4-4-4-4-----------------|
E-|-----------------7-7-7-7-7-7-7-7-----------------4-4-4-4-4-4-4-4-|

G-|-----------------------------------------------------------------|
D-|-----------------------------------------------------------------|
A-|-7-7-7-7-7-7-7-7-----------------4-4-4-4-4-4-4-4-----------------|
E-|-----------------7-7-7-7-7-7-7-7-----------------5-5-5-5-5-5-5-5-|

G-|-----------------------------------------------------------------|
D-|-----------------------------------------------------------------|
A-|-7-7-7-7-7-7-7-7-----------------4-4-4-4-4-4-4-4-----------------|
E-|-----------------7-7-7-7-7-7-7-7-----------------4-4-4-4-4-4-4-4-|
i don't mind you hanging out
and talking in your sleep
it doesn't matter where you've been
as long as it was deep
you always knew to wear it well
you look so fancy i can tell
G-|-----------------------------------------------------------------|
D-|-----------------------------------------------------------------|
A-|-7-7-7-7-7-7-7-7-------------------------------------------------|
E-|-----------------7-7-7-7-7-7-7-7-4-4-4-4-4-4-4-4-5-5-5-5-5-5-5-5-|
i don't mind you hanging out
and talking in your sleep

G-|---------------------------------|
D-|---------------------------------|
A-|-7-7---------4---7-7---------4-4-|
E-|-----7-7-5-5---7-----7-7-5-5-----|
i guess you're just what i needed
i needed someone to feed
i guess you're just what i needed
i needed someone to bleed

G-|---------------------------------|
D-|---------------------------------| \ x4
A-|-7-7-7-7---------4-4-4-4---------| /
E-|---------7-7-7-7---------4-4-4-4-|

G-|-----------------------------------------------------------------|
D-|-----------------------------------------------------------------|
A-|-7-7-7-7-7-7-7-7-----------------4-4-4-4-4-4-4-4-----------------|
E-|-----------------7-7-7-7-7-7-7-7-----------------4-4-4-4-4-4-4-4-|
i don't mind you coming here
and wasting all my time
'cause when you're standing oh so near
i kinda lose my mind
it's not the perfume that you wear
it's not the ribbons in your hair
G-|-----------------------------------------------------------------|
D-|-----------------------------------------------------------------|
A-|-7-7-7-7-7-7-7-7-------------------------------------------------|
E-|-----------------7-7-7-7-7-7-7-7-4-4-4-4-4-4-4-4-5-5-5-5-5-5-5-5-|
i don't mind you coming here
and wasting all my time

G-|---------------------------------|
D-|---------------------------------|
A-|-7-7---------4---7-7---------4-4-|
E-|-----7-7-5-5---7-----7-7-5-5-----|
i guess you're just what i needed
i needed someone to feed
i guess you're just what i needed
i needed someone to bleed
i guess you're just what i needed
i needed someone to feed
i guess you're just what i needed
i needed someone to bleed
so bleed then

G-|---------------------------------|
D-|---------------------------------|
A-|-7-7-7-7---------4-4-4-4---------|
E-|---------7-7-7-7---------4-4-4-4-|
you're just what i needed
you're just what i needed
you're just what i needed

Outro:
G-|-------|
D-|-------|
A-|-----4-|
E-|-4-7---|

Comments about this tab

No comments/corrections found. Add your own

Complimentary Christian Ringtones
Dadamobile and CGR have teamed up to bring your favorite Christian artists right to your phone. Sign up today and get 10 complementary ringtones!
Tab Country
Did you know CGR has a sister site w/ country guitar tabs? Well we do! Its called Tab Country. It has a great archive with a lot of country tabs.
Rockin Tabs
Are you looking for a site that has rock guitar tabs? Then Rockintabs.com is the place for you. It is a budding site with many rock guitar tabs. Submit your tab today.
Tab Gallery
Tab Gallery has a compilation of christian, rock, and country tabs all in one place. Come visit us.