Bass Tabs
(THIRD DAY) OR BY ARTIST NAME (JENNIFER KNAPP)
0-9|A|B|C|D|E|F|G|H|I|J|K|L|M|N|O|P|Q|R|S|T|U|V|W|X|Y|Z

Join Us Today!

Don't strum alone...
be a part of the largest online Christian music community. Browse thousands of guitar tabs and chat w/ musicians like yourself.


It's Free!

This tab has been rated a 5.00 out of 5 for accuracy. (2 votes)Sorry, but you must be logged in to rate this tab.
Click here to log-in, or you can click here to register.
(Registration is free)

All songs owned by Integrity and Brentwood-Benson are used by permission. If you make copies of any song on this website, be sure to report your usage to CCLI.
Submitted by: CamBoy76

ARTIST: ROPER
ALBUM: BRACE YOURSELF FOR THE MEDIOCRE
SONG: RED EYE TO MIAMI


INTRO/VERSE (Nice reggae feel to it)
G|---------------------------|------------------------------|
D|---12-12--12-10-10-----10--|---12-12--12-10-10------------|
A|------------------10h12--x-|------------------10h12-10h12-|
E|-10------------------------|-10---------------------------|

G|---------------------------|------------------------------|
D|---12-12--12-10-10-----10--|---12-12--12-10-10-12h14------|
A|------------------10h12--x-|------------------------10h12-|
E|-10------------------------|-10---------------------------|

VERSE 2 (When the lyrics speed up.)
G|---------------------------------|----------------------------------|
D|-------12(12)12--12-10-10-----10-|-------12-12--12-10-10-12h14------|
A|-------------------------10h12---|----------------------------10h12-|
E|-10(10)--------------------------|-10(10)---------------------------|


PRE-CHORUS (I think the top one is it, but I like to peddle.)
G|------------------------|------------------------|
D|------------------------|------------------------|
A|------------------------|------------------------|
E|-2-22-3-33-8-88-10-1010-|-1-11-3-33-8-88-10-1010-|

or

G|------------------------|------------------------|
D|------------------------|------------------------|
A|------------------------|------------------------|
E|-2-00-3-0-8-0-10-101010-|-1-00-3-0-8-0-10-101010-|


CHORUS (Not too sure if the opening notes are G, but it works.)
G|------------------|
D|------------------|
A|-----3-33---5-555-|
E|-3-33----323------|


BRIDGE 
G|-----------|
D|-----------|
A|-----------|
E|-11-0-3333-|


CHORUS VARIENT
G|--------------|
D|--------------|
A|----2h3---3h5-|
E|-2h3---2h3----|

Howdy all. Just got the cd today, this was one of my favorite tracks. 
Sorry if the tab isn't as neat as you would want it, 
I just transcribed it from my notepad. 
Oh, feel free to come up with your own versions, 
I'd like to see what you think. 
E-mail me at rubberchicken76@yahoo.com for suggestions or comments.
                             
-Cam

GO JOE!

Comments about this tab

uphillmike - 2011-05-22

The chord at the end of the first line (in parenthesis) should be Em, not E, likewise with the F#m (F), and the G#m (G) at the end of the first line of each verse.


ytckevin - 2011-06-04

I think he was going for the C/E there, not sure what the parenthesis were for other wise.


Add a comment/correction

Complimentary Christian Ringtones
Dadamobile and CGR have teamed up to bring your favorite Christian artists right to your phone. Sign up today and get 10 complementary ringtones!
Tab Country
Did you know CGR has a sister site w/ country guitar tabs? Well we do! Its called Tab Country. It has a great archive with a lot of country tabs.
Rockin Tabs
Are you looking for a site that has rock guitar tabs? Then Rockintabs.com is the place for you. It is a budding site with many rock guitar tabs. Submit your tab today.
Tab Gallery
Tab Gallery has a compilation of christian, rock, and country tabs all in one place. Come visit us.