Bass Tabs
(THIRD DAY) OR BY ARTIST NAME (JENNIFER KNAPP)
0-9|A|B|C|D|E|F|G|H|I|J|K|L|M|N|O|P|Q|R|S|T|U|V|W|X|Y|Z

Join Us Today!

Don't strum alone...
be a part of the largest online Christian music community. Browse thousands of guitar tabs and chat w/ musicians like yourself.


It's Free!

This tab has not yet been rated for accuracy.Sorry, but you must be logged in to rate this tab.
Click here to log-in, or you can click here to register.
(Registration is free)

All songs owned by Integrity and Brentwood-Benson are used by permission. If you make copies of any song on this website, be sure to report your usage to CCLI.
Submitted by: CamBoy76

Artist: Five Iron Frenzy
Album: Quanity is Job 1 & Proof that the Youth are Revolting
Record: 5 Minute Walk

Europe: Final Countdown Intro
G|----|----|----|----|  G|------------------|-----|
D|----|-3>-|----|----|  D|------------------|-----|
A|----|----|-5>-|-7>-|  A|------------5-7-7>|-/19-|
E|-5>-|----|----|----|  E|-5-x-3-x-1-x------|-----|

Quanity is Job 1 Intro
G|----------------|----------|----------------|----|
D|----------------|----------|----------------|----|
A|----------------|----------|----------------|----|
E|-5-3--8-10--1-3-|-55-11-88-|-5-3--8-10--1-3-|-55-|

After Either Intro
G|-------|
D|-------|
A|-------|
E|-00-00-|

Verse
G|---5---------5-------|-----------|--------|
D|-77-7---5--77-7---5--|---7----7--|--------|
A|------77-7------77-7-|-55-5-55-5-|---7-6--|
E|---------------------|-----------|-88-8-6-|

Chorus
G|-----------------------------|------------------|
D|-----------------------------|------------------|
A|-----------------------------|------------------|
E|-5(x8)--4(x8)--8(x8)--10(x8)-|-1>--8>--10>--12>-|

Bridge                            
G|-----------------------------------|-------|
D|-----------------------------------|-------|
A|-00-0h2h3--00-0h2h3--00-0h2h3------|-------|
E|---------3---------3---------34(4)-|-00000-|


EFC Intro: Play single notes the first time. 
           Bust into strumming while Reese screams.

Chorus: It's difficult to tell when to switch notes here.
        Just trust your own ears. Play as fast as you can.

Bridge: Second time play the G# or E|4 twice. End with E.

After Chorus play the QIJ1 Intro but with multiple notes.


Key: h = hammer.
    (xnumber) = play as many listed.
     > = Multiple notes, sign of lazy tabber.
 
I peiced this together like Frankenstein's monster from my memory.
I'm sorry if I stole anything, I tried to give credit.

EFC Intro = Cameron (me) and umm... Everyone else.
QIJ1 Intro = I'm not sure I made this one up, someone correct me.
Chorus = (me again) this time for sure...
Verse = Same with the QIJ1 Intro, not sure this was me...

-Cam

To CG.org: This is essentially a more complete version of the song and I 
believe has a better Chorus and Verse. 
    



Comments about this tab

No comments/corrections found. Add your own

Complimentary Christian Ringtones
Dadamobile and CGR have teamed up to bring your favorite Christian artists right to your phone. Sign up today and get 10 complementary ringtones!
Tab Country
Did you know CGR has a sister site w/ country guitar tabs? Well we do! Its called Tab Country. It has a great archive with a lot of country tabs.
Rockin Tabs
Are you looking for a site that has rock guitar tabs? Then Rockintabs.com is the place for you. It is a budding site with many rock guitar tabs. Submit your tab today.
Tab Gallery
Tab Gallery has a compilation of christian, rock, and country tabs all in one place. Come visit us.