Bass Tabs
(THIRD DAY) OR BY ARTIST NAME (JENNIFER KNAPP)
0-9|A|B|C|D|E|F|G|H|I|J|K|L|M|N|O|P|Q|R|S|T|U|V|W|X|Y|Z

Join Us Today!

Don't strum alone...
be a part of the largest online Christian music community. Browse thousands of guitar tabs and chat w/ musicians like yourself.


It's Free!

This tab has not yet been rated for accuracy.Sorry, but you must be logged in to rate this tab.
Click here to log-in, or you can click here to register.
(Registration is free)

All songs owned by Integrity and Brentwood-Benson are used by permission. If you make copies of any song on this website, be sure to report your usage to CCLI.
Submitted by: jsoccer

Hear our Praises
John Reuben

s=slide
intro:
 1  2  3  4  1  2  3  4
g----------------------
d----------------------
a3-33--3-33-3-33-------
e----------------1----1 x2

verse
 1  2  3  4  
g-----------------------------------------------
d-----------------------------------------------
a3-33-3------33-3-33-----0-0-0-0----------------
e-------1--1---------3-3---------1-1-1s3-3-3-3-3x2
chorus
g----------------------------------------------------
d----------------------------------------------------
a3-33-3-------------0-0-0-0--------------------------
e-------3-3s1-1-1-1---------0-0-0-0-0-1-1s3-3-3-3-3-3x2
             intro
             verse
             chorus
bridge
g----------------------------------------------------------------
d----------0-0-0-0---------------------------0-0-0-0-------------
a------------------0-0-0-0----------------------------------------
e1-1-1-1-1-----------------0-0-0-0-1-1-1-1-1---------3-3-3-3-3-333 x4

  chorusx2

outro

g------------------
d------------------
a3-3-3-3-3-3-------
e------------1--1-8hold

well thats it. this is I play it, and im 99.9repeating% sure its correct please 
comment. and rate and use all your abillites to serve God.
Jonathan B. 

Comments about this tab

knoxsoookemusic - 2008-11-12

Awesome song, but most musicians know more than 3 chords so please dont limit yourself and submit incorrect songs because of this, I'll email you the correct ones if you would like,
(I only looked it up because I couldn't remember the lyrics :D yes I know I fail)


Add a comment/correction

Complimentary Christian Ringtones
Dadamobile and CGR have teamed up to bring your favorite Christian artists right to your phone. Sign up today and get 10 complementary ringtones!
Tab Country
Did you know CGR has a sister site w/ country guitar tabs? Well we do! Its called Tab Country. It has a great archive with a lot of country tabs.
Rockin Tabs
Are you looking for a site that has rock guitar tabs? Then Rockintabs.com is the place for you. It is a budding site with many rock guitar tabs. Submit your tab today.
Tab Gallery
Tab Gallery has a compilation of christian, rock, and country tabs all in one place. Come visit us.