Bass Tabs
(THIRD DAY) OR BY ARTIST NAME (JENNIFER KNAPP)
0-9|A|B|C|D|E|F|G|H|I|J|K|L|M|N|O|P|Q|R|S|T|U|V|W|X|Y|Z

Join Us Today!

Don't strum alone...
be a part of the largest online Christian music community. Browse thousands of guitar tabs and chat w/ musicians like yourself.


It's Free!

This tab has not yet been rated for accuracy.Sorry, but you must be logged in to rate this tab.
Click here to log-in, or you can click here to register.
(Registration is free)

All songs owned by Integrity and Brentwood-Benson are used by permission. If you make copies of any song on this website, be sure to report your usage to CCLI.
Submitted by: lilbassplayer13

Im not sure u'll like these tabs but its how my church plays the song .


 Intro
G-------------------------------
D-------------------------------
A-----3half note-7-7-5 hole note
E-3-3---------------------------

 Intro 2 easier
G-------------------------------
D---------------2-2-0half note--
A-----3half note----------------
E--3-3--------------------------
 
Verse 1 and Verse 2
G-------------------------------
D-------------------------------
A-----------7-7----5-5-5-3-3-3--
E-3-3----33---------------------

Like a brige thingy
G--------------------------------
D--------------------------------
A-----3half note---7-7-5half note
E--3-3---------------------------
Play bridge 2
Bridge thingy

Actual bridge
G------------------------------------
D------------------------------------
A--55555555-7777777-55555555-33333333
E------------------------------------

Chorus (Before u start playing there is like a 10 beat rest then u play
to make it easier on my fingers u play the intro basicly)

Intro to Trading my saroows
G----5half note----9-9-7 half note-------
D-5-5------------------------------------
A----------------------------------------repeat like 3 times 
E----------------------------------------

to tell u the truth the whole song goes like this so its like really simle
u can always make like lower if u want it to be
  Intro 2
G-----------------------------------------------
D-----------------------------------------------
A----3half note--2-2-3 half note-7-7-9-half noterepeat like 2 times easy right 
E-3-3-------------------------------------------


Any ?'s e mail me at littlepatrickstar@hotmail.com i got messenger to 

Comments about this tab

tukelarbutton - 2006-04-06

Instead of a B7, the correct chord is a G/B. Great Tab!


Add a comment/correction

Complimentary Christian Ringtones
Dadamobile and CGR have teamed up to bring your favorite Christian artists right to your phone. Sign up today and get 10 complementary ringtones!
Tab Country
Did you know CGR has a sister site w/ country guitar tabs? Well we do! Its called Tab Country. It has a great archive with a lot of country tabs.
Rockin Tabs
Are you looking for a site that has rock guitar tabs? Then Rockintabs.com is the place for you. It is a budding site with many rock guitar tabs. Submit your tab today.
Tab Gallery
Tab Gallery has a compilation of christian, rock, and country tabs all in one place. Come visit us.